  0
SECTION
  2
HEADER
  9
$ACADVER
  1
AC1009
  9
$INSBASE
 10
0.0
 20
0.0
 30
0.0
  9
$EXTMIN
 10
-180.0109854719463
 20
-271.71201225229311
 30
-0.0015258207003583
  9
$EXTMAX
 10
180.0109871483271
 20
263.54811648730879
 30
0.0000000349246037
  9
$LIMMIN
 10
0.0
 20
0.0
  9
$LIMMAX
 10
0.0
 20
0.0
  9
$ORTHOMODE
 70
     0
  9
$REGENMODE
 70
     1
  9
$FILLMODE
 70
     1
  9
$QTEXTMODE
 70
     0
  9
$MIRRTEXT
 70
     1
  9
$DRAGMODE
 70
     2
  9
$LTSCALE
 40
10.16
  9
$OSMODE
 70
   231
  9
$ATTMODE
 70
     1
  9
$TEXTSIZE
 40
0.0
  9
$TRACEWID
 40
1.0
  9
$TEXTSTYLE
  7
STANDARD
  9
$CLAYER
  8
DATA
  9
$CELTYPE
  6
BYLAYER
  9
$CECOLOR
 62
   256
  9
$DIMSCALE
 40
1.0
  9
$DIMASZ
 40
0.18
  9
$DIMEXO
 40
0.0625
  9
$DIMDLI
 40
0.38
  9
$DIMRND
 40
0.0
  9
$DIMDLE
 40
0.0
  9
$DIMEXE
 40
0.18
  9
$DIMTP
 40
0.0
  9
$DIMTM
 40
0.0
  9
$DIMTXT
 40
0.18
  9
$DIMCEN
 40
0.09
  9
$DIMTSZ
 40
0.0
  9
$DIMTOL
 70
     0
  9
$DIMLIM
 70
     0
  9
$DIMTIH
 70
     1
  9
$DIMTOH
 70
     1
  9
$DIMSE1
 70
     0
  9
$DIMSE2
 70
     0
  9
$DIMTAD
 70
     0
  9
$DIMZIN
 70
     0
  9
$DIMBLK
  1

  9
$DIMASO
 70
     1
  9
$DIMSHO
 70
     1
  9
$DIMPOST
  1

  9
$DIMAPOST
  1

  9
$DIMALT
 70
     0
  9
$DIMALTD
 70
     2
  9
$DIMALTF
 40
25.399999999999999
  9
$DIMLFAC
 40
1.0
  9
$DIMTOFL
 70
     0
  9
$DIMTVP
 40
0.0
  9
$DIMTIX
 70
     0
  9
$DIMSOXD
 70
     0
  9
$DIMSAH
 70
     0
  9
$DIMBLK1
  1

  9
$DIMBLK2
  1

  9
$DIMSTYLE
  2
STANDARD
  9
$DIMCLRD
 70
     0
  9
$DIMCLRE
 70
     0
  9
$DIMCLRT
 70
     0
  9
$DIMTFAC
 40
1.0
  9
$DIMGAP
 40
0.09
  9
$LUNITS
 70
     2
  9
$LUPREC
 70
     4
  9
$SKETCHINC
 40
0.1
  9
$FILLETRAD
 40
0.0
  9
$AUNITS
 70
     0
  9
$AUPREC
 70
     0
  9
$MENU
  1
acad
  9
$ELEVATION
 40
0.0
  9
$PELEVATION
 40
0.0
  9
$THICKNESS
 40
0.0
  9
$LIMCHECK
 70
     0
  9
$BLIPMODE
 70
     0
  9
$CHAMFERA
 40
0.0
  9
$CHAMFERB
 40
0.0
  9
$SKPOLY
 70
     0
  9
$TDCREATE
 40
2456279.4986574068
  9
$TDUPDATE
 40
2456279.5035301279
  9
$TDINDWG
 40
0.0003583912
  9
$TDUSRTIMER
 40
0.0003583449
  9
$USRTIMER
 70
     1
  9
$ANGBASE
 50
0.0
  9
$ANGDIR
 70
     0
  9
$PDMODE
 70
     1
  9
$PDSIZE
 40
-2.0
  9
$PLINEWID
 40
0.0
  9
$COORDS
 70
     2
  9
$SPLFRAME
 70
     0
  9
$SPLINETYPE
 70
     6
  9
$SPLINESEGS
 70
     8
  9
$ATTDIA
 70
     0
  9
$ATTREQ
 70
     1
  9
$HANDLING
 70
     1
  9
$HANDSEED
  5
39A
  9
$SURFTAB1
 70
     6
  9
$SURFTAB2
 70
     6
  9
$SURFTYPE
 70
     6
  9
$SURFU
 70
     6
  9
$SURFV
 70
     6
  9
$UCSNAME
  2

  9
$UCSORG
 10
0.0
 20
0.0
 30
0.0
  9
$UCSXDIR
 10
1.0
 20
0.0
 30
0.0
  9
$UCSYDIR
 10
0.0
 20
1.0
 30
0.0
  9
$PUCSNAME
  2

  9
$PUCSORG
 10
0.0
 20
0.0
 30
0.0
  9
$PUCSXDIR
 10
1.0
 20
0.0
 30
0.0
  9
$PUCSYDIR
 10
0.0
 20
1.0
 30
0.0
  9
$USERI1
 70
     0
  9
$USERI2
 70
     0
  9
$USERI3
 70
     0
  9
$USERI4
 70
     0
  9
$USERI5
 70
     0
  9
$USERR1
 40
0.0
  9
$USERR2
 40
0.0
  9
$USERR3
 40
0.0
  9
$USERR4
 40
0.0
  9
$USERR5
 40
0.0
  9
$WORLDVIEW
 70
     1
  9
$SHADEDGE
 70
     3
  9
$SHADEDIF
 70
    70
  9
$TILEMODE
 70
     1
  9
$MAXACTVP
 70
    64
  9
$PLIMCHECK
 70
     0
  9
$PEXTMIN
 10
1.0000000000000000E+020
 20
1.0000000000000000E+020
 30
1.0000000000000000E+020
  9
$PEXTMAX
 10
-1.0000000000000000E+020
 20
-1.0000000000000000E+020
 30
-1.0000000000000000E+020
  9
$PLIMMIN
 10
0.0
 20
0.0
  9
$PLIMMAX
 10
12.0
 20
9.0
  9
$UNITMODE
 70
     0
  9
$VISRETAIN
 70
     0
  9
$PLINEGEN
 70
     1
  9
$PSLTSCALE
 70
     0
  0
ENDSEC
  0
SECTION
  2
TABLES
  0
TABLE
  2
VPORT
 70
     1
  0
VPORT
  2
*ACTIVE
 70
     0
 10
0.0
 20
0.0
 11
1.0
 21
1.0
 12
0.000000838190374
 22
-4.081947882492158
 13
0.0
 23
0.0
 14
1.0
 24
1.0
 15
0.0
 25
0.0
 16
0.0
 26
0.0
 36
1.0
 17
0.0
 27
0.0
 37
0.0
 40
540.42340972422824
 41
2.5684380032206109
 42
50.0
 43
0.0
 44
0.0
 50
0.0
 51
0.0
 71
     0
 72
  2000
 73
     1
 74
     1
 75
     0
 76
     0
 77
     0
 78
     0
  0
ENDTAB
  0
TABLE
  2
LTYPE
 70
    12
  0
LTYPE
  2
CONTINUOUS
 70
     0
  3
Solid line
 72
    65
 73
     0
 40
0.0
  0
LTYPE
  2
PHANTOM2
 70
     0
  3
___ _ _ ___ _ _ ___ _ _ ___ _ _
 72
    65
 73
     6
 40
1.25
 49
0.625
 49
-0.125
 49
0.125
 49
-0.125
 49
0.125
 49
-0.125
  0
ENDTAB
  0
TABLE
  2
LAYER
 70
     5
  0
LAYER
  2
0
 70
     0
 62
     7
  6
CONTINUOUS
  0
LAYER
  2
DATA
 70
     0
 62
     7
  6
CONTINUOUS
  0
LAYER
  2
HIBINO-BASE
 70
     0
 62
     7
  6
CONTINUOUS
  0
LAYER
  2
SPEC
 70
     0
 62
     7
  6
CONTINUOUS
  0
LAYER
  2
DIMNSIONS
 70
     0
 62
     7
  6
CONTINUOUS
  0
ENDTAB
  0
TABLE
  2
STYLE
 70
     3
  0
STYLE
  2
STANDARD
 70
     0
 40
0.0
 41
1.0
 50
0.0
 71
     0
 42
0.0
  3
txt
  4
BIGFONT.SHX
  0
ENDTAB
  0
TABLE
  2
VIEW
 70
     0
  0
ENDTAB
  0
TABLE
  2
UCS
 70
     0
  0
ENDTAB
  0
TABLE
  2
APPID
 70
     4
  0
APPID
  2
ACAD
 70
     0
  0
APPID
  2
ACADANNOTATIVE
 70
     0
  0
APPID
  2
ACAD_NAV_VCDISPLAY
 70
     0
  0
APPID
  2
ACAD_MLEADERVER
 70
     0
  0
ENDTAB
  0
TABLE
  2
DIMSTYLE
 70
     2
  0
DIMSTYLE
  2
STANDARD
 70
     0
  3

  4

  5

  6

  7

 40
1.0
 41
0.18
 42
0.0625
 43
0.38
 44
0.18
 45
0.0
 46
0.0
 47
0.0
 48
0.0
140
0.18
141
0.09
142
0.0
143
25.399999999999999
144
1.0
145
0.0
146
1.0
147
0.09
 71
     0
 72
     0
 73
     1
 74
     1
 75
     0
 76
     0
 77
     0
 78
     0
170
     0
171
     2
172
     0
173
     0
174
     0
175
     0
176
     0
177
     0
178
     0
  0
ENDTAB
  0
ENDSEC
  0
SECTION
  2
BLOCKS
  0
BLOCK
  8
0
  2
$MODEL_SPACE
 70
     0
 10
0.0
 20
0.0
 30
0.0
  3
$MODEL_SPACE
  1

  0
ENDBLK
  5
2B4
  8
0
  0
BLOCK
 67
     1
  8
0
  2
$PAPER_SPACE
 70
     0
 10
0.0
 20
0.0
 30
0.0
  3
$PAPER_SPACE
  1

  0
ENDBLK
  5
2B0
 67
     1
  8
0
  0
ENDSEC
  0
SECTION
  2
ENTITIES
  0
LINE
  5
2C
  8
HIBINO-BASE
  6
CONTINUOUS
 62
     7
 10
-179.99999998199991
 20
263.53181497329359
 30
0.0
 11
179.99999998199991
 21
263.53181497329359
 31
0.0
  0
LINE
  5
2D
  8
HIBINO-BASE
  6
CONTINUOUS
 62
     7
 10
179.99999998199991
 20
-256.46818497470639
 30
0.0
 11
-179.99999998199991
 21
-256.46818497470639
 31
0.0
  0
LINE
  5
2E
  8
HIBINO-BASE
  6
CONTINUOUS
 62
     7
 10
-179.99999998199991
 20
-256.46818497470639
 30
0.0
 11
-179.99999998199991
 21
263.53181497329359
 31
0.0
  0
LINE
  5
2F
  8
HIBINO-BASE
  6
CONTINUOUS
 62
     7
 10
179.99999998199991
 20
263.53181497329359
 30
0.0
 11
179.99999998199991
 21
-256.46818497470639
 31
0.0
  0
LINE
  5
30
  8
HIBINO-BASE
  6
CONTINUOUS
 62
     7
 10
0.0000000000000142
 20
-211.4681849792064
 30
0.0
 11
179.99999998199991
 21
-211.4681849792064
 31
0.0
  0
LINE
  5
31
  8
HIBINO-BASE
  6
CONTINUOUS
 62
     7
 10
0.0000000000000142
 20
-256.46818497470639
 30
0.0
 11
0.0000000000000142
 21
-211.4681849792064
 31
0.0
  0
TEXT
  5
32
  8
HIBINO-BASE
 62
     7
 10
1.7999999998200249
 20
-216.48557164537129
 30
0.0
 40
3.2576822913408972
  1
NOTE
 41
0.7
 11
1.7999999998200249
 21
-213.2278893540304
 31
0.0
 73
     3
  0
LINE
  5
33
  8
HIBINO-BASE
  6
CONTINUOUS
 62
     7
 10
69.999999993000031
 20
-256.46818497470639
 30
0.0
 11
69.999999993000031
 21
-211.4681849792064
 31
0.0
  0
TEXT
  5
34
  8
HIBINO-BASE
 62
     7
 10
71.799999992819991
 20
-216.48557164537129
 30
0.0
 40
3.2576822913408972
  1
TITLE
 41
0.7
 11
71.799999992819991
 21
-213.2278893540304
 31
0.0
 73
     3
  0
LINE
  5
35
  8
HIBINO-BASE
  6
CONTINUOUS
 62
     7
 10
0.0000000000000142
 20
-236.4681849767064
 30
0.0
 11
179.99999998199991
 21
-236.4681849767064
 31
0.0
  0
TEXT
  5
36
  8
HIBINO-BASE
 62
     7
 10
96.799999990319975
 20
-241.37293164288249
 30
0.0
 40
3.2576822913408972
  1
DRAWN
 41
0.7
 11
96.799999990319975
 21
-238.11524935154159
 31
0.0
 73
     3
  0
TEXT
  5
37
  8
HIBINO-BASE
 62
     7
 10
46.799999995319993
 20
-241.37293164288249
 30
0.0
 40
3.2576822913408972
  1
DATE
 41
0.7
 11
46.799999995319993
 21
-238.11524935154159
 31
0.0
 73
     3
  0
TEXT
  5
38
  8
HIBINO-BASE
 62
     7
 10
26.79999999732
 20
-241.37293164288249
 30
0.0
 40
3.2576822913408972
  1
SCALE
 41
0.7
 11
26.79999999732
 21
-238.11524935154159
 31
0.0
 73
     3
  0
TEXT
  5
39
  8
HIBINO-BASE
 62
     7
 10
71.799999992819991
 20
-241.37293164288249
 30
0.0
 40
3.2576822913408972
  1
DESIGN
 41
0.7
 11
71.799999992819991
 21
-238.11524935154159
 31
0.0
 73
     3
  0
TEXT
  5
3A
  8
HIBINO-BASE
 62
     7
 10
146.79999998532
 20
-241.37293164288249
 30
0.0
 40
3.2576822913408972
  1
DRAWING NO.
 41
0.7
 11
146.79999998532
 21
-238.11524935154159
 31
0.0
 73
     3
  0
TEXT
  5
3B
  8
HIBINO-BASE
 62
     7
 10
121.79999998782
 20
-241.37293164288249
 30
0.0
 40
3.2576822913408972
  1
CHECK
 41
0.7
 11
121.79999998782
 21
-238.11524935154159
 31
0.0
 73
     3
  0
LINE
  5
3C
  8
HIBINO-BASE
  6
CONTINUOUS
 62
     7
 10
28.749999997125009
 20
-253.96818497495639
 30
0.0
 11
36.249999996375038
 21
-246.46818497570641
 31
0.0
  0
TEXT
  5
3D
  8
HIBINO-BASE
 62
     7
 10
27.499999997250018
 20
-248.68607164215121
 30
0.0
 40
3.2576822913408972
  1
1
 41
0.7
 11
27.499999997250018
 21
-245.42838935081031
 31
0.0
 73
     3
  0
LINE
  5
3E
  8
HIBINO-BASE
  6
CONTINUOUS
 62
     7
 10
24.999999997500009
 20
-256.46818497470639
 30
0.0
 11
24.999999997500009
 21
-236.4681849767064
 31
0.0
  0
LINE
  5
3F
  8
HIBINO-BASE
  6
CONTINUOUS
 62
     7
 10
44.999999995499977
 20
-256.46818497470639
 30
0.0
 11
44.999999995499977
 21
-236.4681849767064
 31
0.0
  0
LINE
  5
40
  8
HIBINO-BASE
  6
CONTINUOUS
 62
     7
 10
94.999999990499944
 20
-236.4681849767064
 30
0.0
 11
94.999999990499944
 21
-256.46818497470639
 31
0.0
  0
LINE
  5
41
  8
HIBINO-BASE
  6
CONTINUOUS
 62
     7
 10
144.99999998550001
 20
-236.4681849767064
 30
0.0
 11
144.99999998550001
 21
-256.46818497470639
 31
0.0
  0
LINE
  5
42
  8
HIBINO-BASE
  6
CONTINUOUS
 62
     7
 10
119.9999999879999
 20
-256.46818497470639
 30
0.0
 11
119.9999999879999
 21
-236.4681849767064
 31
0.0
  0
TEXT
  5
43
  8
HIBINO-BASE
 62
     7
 10
46.713079995328719
 20
-250.74089164194569
 30
0.0
 40
3.2576822913408972
  1
'12.12.
 41
0.7
 11
46.713079995328719
 21
-247.4832093506048
 31
0.0
 73
     3
  0
TEXT
  5
44
  8
HIBINO-BASE
 62
     7
 10
34.999999996500009
 20
-252.43607164177621
 30
0.0
 40
3.2576822913408972
  1
2
 41
0.7
 11
34.999999996500009
 21
-249.17838935043531
 31
0.0
 73
     3
  0
TEXT
  5
45
  8
HIBINO-BASE
 62
     7
 10
98.011620012268082
 20
-250.74089164194569
 30
0.0
 40
3.2576822913408972
  1
N.Sasaki
 41
0.7
 11
98.011620012268082
 21
-247.4832093506048
 31
0.0
 73
     3
  0
TEXT
  5
46
  8
HIBINO-BASE
 62
     7
 10
7.7666666658900541
 20
-252.51618497510151
 30
0.0
 40
6.5153645826817961
  1
A4
 41
0.7
 11
7.7666666658900541
 21
-246.00082039241971
 31
0.0
 73
     3
  0
TEXT
  5
47
  8
HIBINO-BASE
 62
     7
 10
1.9166666664750041
 20
-241.7070949761825
 30
0.0
 40
3.2576822913408972
  1
PAPER SIZE
 41
0.7
 11
1.9166666664750041
 21
-238.44941268484149
 31
0.0
 73
     3
  0
TEXT
  5
48
  8
HIBINO-BASE
 62
     7
 10
-165.63199998343671
 20
-269.2855405734245
 30
0.0
 40
7.2000883586549902
  1
Hibino Corporation
 41
0.7
 11
-165.63199998343671
 21
-262.08545221476948
 31
0.0
 73
     3
  0
TEXT
  5
49
  8
HIBINO-BASE
 62
     7
 10
100.13677998998629
 20
-269.2855405734245
 30
0.0
 40
7.2000883586549902
  1
ヒビノ株式会社
 41
0.7
 11
100.13677998998629
 21
-262.08545221476948
 31
0.0
 73
     3
  0
LINE
  5
4A
  8
SPEC
  6
CONTINUOUS
 62
     7
 10
-164.99999998349989
 20
243.5318149752936
 30
0.0
 11
129.999999987
 21
243.5318149752936
 31
0.0
  0
LINE
  5
4B
  8
SPEC
  6
CONTINUOUS
 62
     7
 10
-164.99999998349989
 20
236.03181497604359
 30
0.0
 11
129.999999987
 21
236.03181497604359
 31
0.0
  0
LINE
  5
4C
  8
SPEC
  6
CONTINUOUS
 62
     7
 10
-164.99999998349989
 20
221.0318149775436
 30
0.0
 11
129.999999987
 21
221.0318149775436
 31
0.0
  0
LINE
  5
4D
  8
SPEC
  6
CONTINUOUS
 62
     7
 10
-164.99999998349989
 20
228.53181497679361
 30
0.0
 11
129.999999987
 21
228.53181497679361
 31
0.0
  0
LINE
  5
4E
  8
SPEC
  6
CONTINUOUS
 62
     7
 10
-164.99999998349989
 20
243.5318149752936
 30
0.0
 11
-164.99999998349989
 21
221.0318149775436
 31
0.0
  0
TEXT
  5
4F
  8
SPEC
 62
     7
 10
-162.49999998374989
 20
246.31835497501501
 30
0.0
 40
4.8865234370113457
  1
仕様
 41
0.7
 11
-162.49999998374989
 21
251.20487841202629
 31
0.0
 73
     3
  0
LINE
  5
50
  8
SPEC
  6
CONTINUOUS
 62
     7
 10
-99.999999989999964
 20
243.5318149752936
 30
0.0
 11
-99.999999989999964
 21
221.0318149775436
 31
0.0
  0
LINE
  5
51
  8
SPEC
  6
CONTINUOUS
 62
     7
 10
129.999999987
 20
243.5318149752936
 30
0.0
 11
129.999999987
 21
221.0318149775436
 31
0.0
  0
TEXT
  5
52
  8
SPEC
 62
     7
 10
-163.19999998367999
 20
222.6076581773861
 30
0.0
 40
3.8006224996199358
  1
付属品
 41
0.7
 11
-163.19999998367999
 21
226.40828067700599
 31
0.0
 73
     3
  0
TEXT
  5
53
  8
SPEC
 62
     7
 10
-163.19999998367999
 20
237.607658175886
 30
0.0
 40
3.8006224996199358
  1
寸法（\U+03C6\U+00D7全長)
 41
0.7
 11
-163.19999998367999
 21
241.40828067550601
 31
0.0
 73
     3
  0
TEXT
  5
54
  8
SPEC
 62
     7
 10
-163.19999998367999
 20
230.10765817663599
 30
0.0
 40
3.8006224996199358
  1
重量
 41
0.7
 11
-163.19999998367999
 21
233.90828067625591
 31
0.0
 73
     3
  0
TEXT
  5
55
  8
SPEC
 62
     7
 10
-98.199999990179961
 20
222.6076581773861
 30
0.0
 40
3.8006224996199358
  1
ライトリング
 41
0.7
 11
-98.199999990179961
 21
226.40828067700599
 31
0.0
 73
     3
  0
TEXT
  5
56
  8
SPEC
 62
     7
 10
-98.199999990179961
 20
237.607658175886
 30
0.0
 40
3.8006224996199358
  1
\U+03C619.0\U+00D7299.4mm
 41
0.7
 11
-98.199999990179961
 21
241.40828067550601
 31
0.0
 73
     3
  0
TEXT
  5
57
  8
SPEC
 62
     7
 10
-98.199999990179961
 20
230.10765817663599
 30
0.0
 40
3.8006224996199358
  1
92g
 41
0.7
 11
-98.199999990179961
 21
233.90828067625591
 31
0.0
 73
     3
  0
TEXT
  5
58
  8
DIMNSIONS
 62
     7
 10
-39.999999995999993
 20
-231.9292049771602
 30
0.0
 40
4.8865234370113457
  1
(単位：mm)
 41
0.7
 11
-39.999999995999993
 21
-227.04268154014889
 31
0.0
 73
     3
  0
LINE
  5
59
  8
DIMNSIONS
  6
CONTINUOUS
 62
     7
 10
-58.199999999999989
 20
149.39999999999989
 30
0.0
 11
-94.0
 21
149.39999999999989
 31
0.0
  0
LINE
  5
5A
  8
DIMNSIONS
  6
CONTINUOUS
 62
     7
 10
-59.54400000000004
 20
-150.0
 30
0.0
 11
-94.0
 21
-150.0
 31
0.0
  0
LINE
  5
5B
  8
DIMNSIONS
  6
CONTINUOUS
 62
     7
 10
-90.0
 20
149.39999999999989
 30
0.0
 11
-90.0
 21
-150.0
 31
0.0
  0
LINE
  5
5C
  8
DIMNSIONS
  6
CONTINUOUS
 62
     7
 10
-90.0
 20
149.39999999999989
 30
0.0
 11
-88.659920409699509
 21
144.3987548828124
 31
0.0
  0
LINE
  5
5D
  8
DIMNSIONS
  6
CONTINUOUS
 62
     7
 10
-90.0
 20
149.39999999999989
 30
0.0
 11
-91.340079590300476
 21
144.3987548828124
 31
0.0
  0
LINE
  5
5E
  8
DIMNSIONS
  6
CONTINUOUS
 62
     7
 10
-90.0
 20
-150.0
 30
0.0
 11
-91.340079590300476
 21
-144.99875488281251
 31
0.0
  0
LINE
  5
5F
  8
DIMNSIONS
  6
CONTINUOUS
 62
     7
 10
-90.0
 20
-150.0
 30
0.0
 11
-88.659920409699509
 21
-144.99875488281251
 31
0.0
  0
TEXT
  5
60
  8
DIMNSIONS
 62
     7
 10
-92.487777777777794
 20
-9.1194444444444578
 30
0.0
 40
5.4294704861111107
  1
299.4
 50
90.0
 41
0.7
 11
-97.917248263888908
 21
-9.1194444444444578
 31
0.0
 73
     3
  0
LINE
  5
61
  8
DIMNSIONS
  6
CONTINUOUS
 62
     7
 10
-57.712499999999977
 20
-77.200000000000003
 30
0.0
 11
-79.0
 21
-77.200000000000003
 31
0.0
  0
LINE
  5
62
  8
DIMNSIONS
  6
CONTINUOUS
 62
     7
 10
-57.54999999999999
 20
-17.900000000000031
 30
0.0
 11
-79.0
 21
-17.900000000000031
 31
0.0
  0
LINE
  5
63
  8
DIMNSIONS
  6
CONTINUOUS
 62
     7
 10
-75.0
 20
-77.200000000000003
 30
0.0
 11
-75.0
 21
-17.900000000000031
 31
0.0
  0
LINE
  5
64
  8
DIMNSIONS
  6
CONTINUOUS
 62
     7
 10
-75.0
 20
-77.200000000000003
 30
0.0
 11
-76.340079590300505
 21
-72.198754882812523
 31
0.0
  0
LINE
  5
65
  8
DIMNSIONS
  6
CONTINUOUS
 62
     7
 10
-75.0
 20
-77.200000000000003
 30
0.0
 11
-73.659920409699509
 21
-72.198754882812523
 31
0.0
  0
LINE
  5
66
  8
DIMNSIONS
  6
CONTINUOUS
 62
     7
 10
-75.0
 20
-17.900000000000031
 30
0.0
 11
-73.659920409699509
 21
-22.901245117187528
 31
0.0
  0
LINE
  5
67
  8
DIMNSIONS
  6
CONTINUOUS
 62
     7
 10
-75.0
 20
-17.900000000000031
 30
0.0
 11
-76.340079590300505
 21
-22.901245117187528
 31
0.0
  0
TEXT
  5
68
  8
DIMNSIONS
 62
     7
 10
-77.487777777777794
 20
-54.605555555555583
 30
0.0
 40
5.4294704861111107
  1
59.3
 50
90.0
 41
0.7
 11
-82.917248263888908
 21
-54.605555555555583
 31
0.0
 73
     3
  0
LINE
  5
69
  8
DIMNSIONS
  6
CONTINUOUS
 62
     7
 10
-58.199999999999989
 20
149.39999999999989
 30
0.0
 11
-79.0
 21
149.39999999999989
 31
0.0
  0
LINE
  5
6A
  8
DIMNSIONS
  6
CONTINUOUS
 62
     7
 10
-57.54999999999999
 20
-17.900000000000031
 30
0.0
 11
-79.0
 21
-17.900000000000031
 31
0.0
  0
LINE
  5
6B
  8
DIMNSIONS
  6
CONTINUOUS
 62
     7
 10
-75.0
 20
149.39999999999989
 30
0.0
 11
-75.0
 21
-17.900000000000031
 31
0.0
  0
LINE
  5
6C
  8
DIMNSIONS
  6
CONTINUOUS
 62
     7
 10
-75.0
 20
149.39999999999989
 30
0.0
 11
-73.659920409699509
 21
144.3987548828124
 31
0.0
  0
LINE
  5
6D
  8
DIMNSIONS
  6
CONTINUOUS
 62
     7
 10
-75.0
 20
149.39999999999989
 30
0.0
 11
-76.340079590300505
 21
144.3987548828124
 31
0.0
  0
LINE
  5
6E
  8
DIMNSIONS
  6
CONTINUOUS
 62
     7
 10
-75.0
 20
-17.900000000000031
 30
0.0
 11
-76.340079590300505
 21
-12.898754882812529
 31
0.0
  0
LINE
  5
6F
  8
DIMNSIONS
  6
CONTINUOUS
 62
     7
 10
-75.0
 20
-17.900000000000031
 30
0.0
 11
-73.659920409699509
 21
-12.898754882812529
 31
0.0
  0
TEXT
  5
70
  8
DIMNSIONS
 62
     7
 10
-77.487777777777765
 20
56.930555555555529
 30
0.0
 40
5.4294704861111107
  1
167.3
 50
90.0
 41
0.7
 11
-82.917248263888879
 21
56.930555555555529
 31
0.0
 73
     3
  0
LINE
  5
71
  8
DIMNSIONS
  6
CONTINUOUS
 62
     7
 10
80.5
 20
145.1999999999999
 30
0.0
 11
66.0
 21
145.1999999999999
 31
0.0
  0
LINE
  5
72
  8
DIMNSIONS
  6
CONTINUOUS
 62
     7
 10
80.500000003725305
 20
138.7999999999999
 30
0.0
 11
66.0
 21
138.7999999999999
 31
0.0
  0
LINE
  5
73
  8
DIMNSIONS
  6
CONTINUOUS
 62
     7
 10
70.0
 20
138.7999999999999
 30
0.0
 11
70.0
 21
145.1999999999999
 31
0.0
  0
LINE
  5
74
  8
DIMNSIONS
  6
CONTINUOUS
 62
     7
 10
70.0
 20
145.1999999999999
 30
0.0
 11
70.0
 21
155.1999999999999
 31
0.0
  0
LINE
  5
75
  8
DIMNSIONS
  6
CONTINUOUS
 62
     7
 10
70.0
 20
145.1999999999999
 30
0.0
 11
68.659920409699509
 21
150.2012451171874
 31
0.0
  0
LINE
  5
76
  8
DIMNSIONS
  6
CONTINUOUS
 62
     7
 10
70.0
 20
145.1999999999999
 30
0.0
 11
71.340079590300491
 21
150.2012451171874
 31
0.0
  0
LINE
  5
77
  8
DIMNSIONS
  6
CONTINUOUS
 62
     7
 10
70.0
 20
138.7999999999999
 30
0.0
 11
70.0
 21
128.7999999999999
 31
0.0
  0
LINE
  5
78
  8
DIMNSIONS
  6
CONTINUOUS
 62
     7
 10
70.0
 20
138.7999999999999
 30
0.0
 11
71.340079590300491
 21
133.7987548828124
 31
0.0
  0
LINE
  5
79
  8
DIMNSIONS
  6
CONTINUOUS
 62
     7
 10
70.0
 20
138.7999999999999
 30
0.0
 11
68.659920409699509
 21
133.7987548828124
 31
0.0
  0
TEXT
  5
7A
  8
DIMNSIONS
 62
     7
 10
68.012220676722237
 20
140.2361082514127
 30
0.0
 40
5.4294789811864126
  1
6
 50
90.0
 41
0.7
 11
62.582741695535823
 21
140.2361082514127
 31
0.0
 73
     3
  0
LINE
  5
7B
  8
DIMNSIONS
  6
CONTINUOUS
 62
     7
 10
96.198774692816926
 20
165.867483538122
 30
0.0
 11
105.0
 21
159.99999999999989
 31
0.0
  0
LINE
  5
7C
  8
DIMNSIONS
  6
CONTINUOUS
 62
     7
 10
96.198774692816926
 20
165.867483538122
 30
0.0
 11
101.1230314305874
 21
164.26749553471279
 31
0.0
  0
LINE
  5
7D
  8
DIMNSIONS
  6
CONTINUOUS
 62
     7
 10
96.198774692816926
 20
165.867483538122
 30
0.0
 11
99.663312120778244
 21
162.019724912534
 31
0.0
  0
LINE
  5
7E
  8
DIMNSIONS
  6
CONTINUOUS
 62
     7
 10
105.0
 20
159.99999999999989
 30
0.0
 11
123.1111124568515
 21
159.99999999999989
 31
0.0
  0
TEXT
  5
7F
  8
DIMNSIONS
 62
     7
 10
109.0
 20
161.987777880811
 30
0.0
 40
5.4294710524490908
  1
\U+03C615
 41
0.7
 11
109.0
 21
167.41724893326011
 31
0.0
 73
     3
  0
LINE
  5
80
  8
DIMNSIONS
  6
CONTINUOUS
 62
     7
 10
-59.543999999999983
 20
-150.0
 30
0.0
 11
-79.0
 21
-150.0
 31
0.0
  0
LINE
  5
81
  8
DIMNSIONS
  6
CONTINUOUS
 62
     7
 10
-57.712499999999977
 20
-77.200000000000003
 30
0.0
 11
-79.0
 21
-77.200000000000003
 31
0.0
  0
LINE
  5
82
  8
DIMNSIONS
  6
CONTINUOUS
 62
     7
 10
-75.0
 20
-150.0
 30
0.0
 11
-75.0
 21
-77.200000000000003
 31
0.0
  0
LINE
  5
83
  8
DIMNSIONS
  6
CONTINUOUS
 62
     7
 10
-75.0
 20
-150.0
 30
0.0
 11
-76.340079590300505
 21
-144.99875488281251
 31
0.0
  0
LINE
  5
84
  8
DIMNSIONS
  6
CONTINUOUS
 62
     7
 10
-75.0
 20
-150.0
 30
0.0
 11
-73.659920409699509
 21
-144.99875488281251
 31
0.0
  0
LINE
  5
85
  8
DIMNSIONS
  6
CONTINUOUS
 62
     7
 10
-75.0
 20
-77.200000000000003
 30
0.0
 11
-73.659920409699509
 21
-82.201245117187483
 31
0.0
  0
LINE
  5
86
  8
DIMNSIONS
  6
CONTINUOUS
 62
     7
 10
-75.0
 20
-77.200000000000003
 30
0.0
 11
-76.340079590300505
 21
-82.201245117187483
 31
0.0
  0
TEXT
  5
87
  8
DIMNSIONS
 62
     7
 10
-76.987777880811052
 20
-120.6555562284257
 30
0.0
 40
5.4294710524490908
  1
72.8
 50
90.0
 41
0.7
 11
-82.417248933260126
 21
-120.6555562284257
 31
0.0
 73
     3
  0
LINE
  5
88
  8
DIMNSIONS
  6
CONTINUOUS
 62
     7
 10
-36.5
 20
-145.0
 30
0.0
 11
-21.0
 21
-145.0
 31
0.0
  0
LINE
  5
89
  8
DIMNSIONS
  6
CONTINUOUS
 62
     7
 10
-41.450000000000003
 20
145.09999999999991
 30
0.0
 11
-21.0
 21
145.09999999999991
 31
0.0
  0
LINE
  5
8A
  8
DIMNSIONS
  6
CONTINUOUS
 62
     7
 10
-25.0
 20
-145.0
 30
0.0
 11
-25.0
 21
145.09999999999991
 31
0.0
  0
LINE
  5
8B
  8
DIMNSIONS
  6
CONTINUOUS
 62
     7
 10
-25.0
 20
-145.0
 30
0.0
 11
-26.340079590300491
 21
-139.99875488281251
 31
0.0
  0
LINE
  5
8C
  8
DIMNSIONS
  6
CONTINUOUS
 62
     7
 10
-25.0
 20
-145.0
 30
0.0
 11
-23.65992040969952
 21
-139.99875488281251
 31
0.0
  0
LINE
  5
8D
  8
DIMNSIONS
  6
CONTINUOUS
 62
     7
 10
-25.0
 20
145.09999999999991
 30
0.0
 11
-23.65992040969952
 21
140.09875488281239
 31
0.0
  0
LINE
  5
8E
  8
DIMNSIONS
  6
CONTINUOUS
 62
     7
 10
-25.0
 20
145.09999999999991
 30
0.0
 11
-26.340079590300491
 21
140.09875488281239
 31
0.0
  0
TEXT
  5
8F
  8
DIMNSIONS
 62
     7
 10
-26.987777880811041
 20
-8.7694451173146728
 30
0.0
 40
5.4294710524490908
  1
290.1
 50
90.0
 41
0.7
 11
-32.41724893326014
 21
-8.7694451173146728
 31
0.0
 73
     3
  0
LINE
  5
90
  8
DIMNSIONS
  6
CONTINUOUS
 62
     7
 10
-46.782664145601252
 20
176.78266414560119
 30
0.0
 11
-40.0
 21
169.99999999999969
 31
0.0
  0
LINE
  5
91
  8
DIMNSIONS
  6
CONTINUOUS
 62
     7
 10
-46.782664145601252
 20
176.78266414560119
 30
0.0
 11
-42.298670443230677
 21
174.19382917449289
 31
0.0
  0
LINE
  5
92
  8
DIMNSIONS
  6
CONTINUOUS
 62
     7
 10
-46.782664145601252
 20
176.78266414560119
 30
0.0
 11
-44.193829174493018
 21
172.29867044323061
 31
0.0
  0
LINE
  5
93
  8
DIMNSIONS
  6
CONTINUOUS
 62
     7
 10
-40.0
 20
169.99999999999969
 30
0.0
 11
-18.361109765370671
 21
169.99999999999969
 31
0.0
  0
TEXT
  5
94
  8
DIMNSIONS
 62
     7
 10
-36.0
 20
171.9877778808108
 30
0.0
 40
5.4294710524490908
  1
\U+03C69.1
 41
0.7
 11
-36.0
 21
177.41724893325991
 31
0.0
 73
     3
  0
LINE
  5
95
  8
DIMNSIONS
  6
CONTINUOUS
 62
     7
 10
-43.2824855787307
 20
-186.71751442127001
 30
0.0
 11
-35.000000000001563
 21
-195.0
 31
0.0
  0
LINE
  5
96
  8
DIMNSIONS
  6
CONTINUOUS
 62
     7
 10
-43.2824855787307
 20
-186.71751442127001
 30
0.0
 11
-38.798491876360153
 21
-189.30634939237819
 31
0.0
  0
LINE
  5
97
  8
DIMNSIONS
  6
CONTINUOUS
 62
     7
 10
-43.2824855787307
 20
-186.71751442127001
 30
0.0
 11
-40.693650607622473
 21
-191.20150812364051
 31
0.0
  0
LINE
  5
98
  8
DIMNSIONS
  6
CONTINUOUS
 62
     7
 10
-35.000000000001563
 20
-195.0
 30
0.0
 11
-9.8332996898242921
 21
-195.0
 31
0.0
  0
TEXT
  5
99
  8
DIMNSIONS
 62
     7
 10
-31.00000000000156
 20
-193.01222067672211
 30
0.0
 40
5.4294789811864126
  1
\U+03C619.0
 41
0.7
 11
-31.00000000000156
 21
-187.5827416955357
 31
0.0
 73
     3
  0
LINE
  5
9A
  8
DATA
  6
CONTINUOUS
 62
     7
 10
16.449999999999999
 20
-17.900000000000031
 30
0.0
 11
23.550000000000001
 21
-17.900000000000031
 31
0.0
  0
LINE
  5
9B
  8
DATA
  6
CONTINUOUS
 62
     7
 10
-53.549999999999997
 20
-17.900000000000031
 30
0.0
 11
-46.450000000000003
 21
-17.900000000000031
 31
0.0
  0
TEXT
  5
9C
  8
DATA
 62
     7
 10
-174.9999999824999
 20
-240.71562942072609
 30
0.0
 40
3.8006293398977151
  1
※仕様及び外観は予告なく変更されることがあります。
 41
0.7
 11
-174.9999999824999
 21
-236.91500008082829
 31
0.0
 73
     3
  0
TEXT
  5
9D
  8
DATA
 62
     7
 10
-174.9999999824999
 20
-245.6545183091211
 30
0.0
 40
3.8006293398977151
  1
　また、同一商品でも若干の個体差があることがあります。ご了承ください。
 41
0.7
 11
-174.9999999824999
 21
-241.85388896922331
 31
0.0
 73
     3
  0
TEXT
  5
9E
  8
DATA
 62
     7
 10
99.999999989999964
 20
-234.2064049769325
 30
0.0
 40
4.8865234370113457
  1
GN30 M
 41
0.7
 11
99.999999989999964
 21
-229.31988153992111
 31
0.0
 73
     3
  0
TEXT
  5
9F
  8
DATA
 62
     7
 10
99.999999989999964
 20
-219.70640497838249
 30
0.0
 40
4.8865234370113457
  1
AKG
 41
0.7
 11
99.999999989999964
 21
-214.8198815413711
 31
0.0
 73
     3
  0
TEXT
  5
A0
  8
DATA
 62
     7
 10
94.999999990499944
 20
-226.66031737768711
 30
0.0
 40
3.25768742154923
  1
グースネック・モジュール
 41
0.7
 11
94.999999990499944
 21
-223.4026299561379
 31
0.0
 73
     3
  0
LINE
  5
A1
  8
DATA
  6
CONTINUOUS
 62
     7
 10
-47.029999999999923
 20
-17.900000000000031
 30
0.0
 11
-47.029999999999923
 21
-77.200000000000003
 31
0.0
  0
LINE
  5
A2
  8
DATA
  6
CONTINUOUS
 62
     7
 10
-52.96999999999997
 20
-17.900000000000031
 30
0.0
 11
-52.96999999999997
 21
-77.200000000000003
 31
0.0
  0
LINE
  5
A3
  8
DATA
  6
CONTINUOUS
 62
     7
 10
-47.029999999999923
 20
-75.751999999999967
 30
0.0
 11
-52.96999999999997
 21
-76.426999999999964
 31
0.0
  0
LINE
  5
A4
  8
DATA
  6
CONTINUOUS
 62
     7
 10
-47.029999999999923
 20
-75.256999999999977
 30
0.0
 11
-52.96999999999997
 21
-75.931999999999974
 31
0.0
  0
LINE
  5
A5
  8
DATA
  6
CONTINUOUS
 62
     7
 10
-47.029999999999923
 20
-73.772000000000006
 30
0.0
 11
-52.96999999999997
 21
-74.446999999999946
 31
0.0
  0
LINE
  5
A6
  8
DATA
  6
CONTINUOUS
 62
     7
 10
-47.029999999999923
 20
-73.277000000000001
 30
0.0
 11
-52.96999999999997
 21
-73.951999999999956
 31
0.0
  0
LINE
  5
A7
  8
DATA
  6
CONTINUOUS
 62
     7
 10
-47.029999999999923
 20
-71.791999999999973
 30
0.0
 11
-52.96999999999997
 21
-72.466999999999999
 31
0.0
  0
LINE
  5
A8
  8
DATA
  6
CONTINUOUS
 62
     7
 10
-47.029999999999923
 20
-71.296999999999983
 30
0.0
 11
-52.96999999999997
 21
-71.971999999999994
 31
0.0
  0
LINE
  5
A9
  8
DATA
  6
CONTINUOUS
 62
     7
 10
-47.029999999999923
 20
-69.811999999999969
 30
0.0
 11
-52.96999999999997
 21
-70.486999999999981
 31
0.0
  0
LINE
  5
AA
  8
DATA
  6
CONTINUOUS
 62
     7
 10
-47.029999999999923
 20
-69.316999999999965
 30
0.0
 11
-52.96999999999997
 21
-69.991999999999976
 31
0.0
  0
LINE
  5
AB
  8
DATA
  6
CONTINUOUS
 62
     7
 10
-47.029999999999923
 20
-67.831999999999994
 30
0.0
 11
-52.96999999999997
 21
-68.506999999999962
 31
0.0
  0
LINE
  5
AC
  8
DATA
  6
CONTINUOUS
 62
     7
 10
-47.029999999999923
 20
-67.337000000000003
 30
0.0
 11
-52.96999999999997
 21
-68.011999999999958
 31
0.0
  0
LINE
  5
AD
  8
DATA
  6
CONTINUOUS
 62
     7
 10
-47.029999999999923
 20
-65.85199999999999
 30
0.0
 11
-52.96999999999997
 21
-66.527000000000001
 31
0.0
  0
LINE
  5
AE
  8
DATA
  6
CONTINUOUS
 62
     7
 10
-47.029999999999923
 20
-65.356999999999985
 30
0.0
 11
-52.96999999999997
 21
-66.031999999999996
 31
0.0
  0
LINE
  5
AF
  8
DATA
  6
CONTINUOUS
 62
     7
 10
-47.029999999999923
 20
-63.871999999999971
 30
0.0
 11
-52.96999999999997
 21
-64.546999999999983
 31
0.0
  0
LINE
  5
B0
  8
DATA
  6
CONTINUOUS
 62
     7
 10
-47.029999999999923
 20
-63.376999999999981
 30
0.0
 11
-52.96999999999997
 21
-64.051999999999978
 31
0.0
  0
LINE
  5
B1
  8
DATA
  6
CONTINUOUS
 62
     7
 10
-47.029999999999923
 20
-61.89200000000001
 30
0.0
 11
-52.96999999999997
 21
-62.566999999999972
 31
0.0
  0
LINE
  5
B2
  8
DATA
  6
CONTINUOUS
 62
     7
 10
-47.029999999999923
 20
-61.397000000000013
 30
0.0
 11
-52.96999999999997
 21
-62.07199999999996
 31
0.0
  0
LINE
  5
B3
  8
DATA
  6
CONTINUOUS
 62
     7
 10
-47.029999999999923
 20
-59.911999999999992
 30
0.0
 11
-52.96999999999997
 21
-60.587000000000003
 31
0.0
  0
LINE
  5
B4
  8
DATA
  6
CONTINUOUS
 62
     7
 10
-47.029999999999923
 20
-59.416999999999987
 30
0.0
 11
-52.96999999999997
 21
-60.091999999999992
 31
0.0
  0
LINE
  5
B5
  8
DATA
  6
CONTINUOUS
 62
     7
 10
-47.029999999999923
 20
-57.931999999999967
 30
0.0
 11
-52.96999999999997
 21
-58.606999999999992
 31
0.0
  0
LINE
  5
B6
  8
DATA
  6
CONTINUOUS
 62
     7
 10
-47.029999999999923
 20
-57.436999999999962
 30
0.0
 11
-52.96999999999997
 21
-58.111999999999981
 31
0.0
  0
LINE
  5
B7
  8
DATA
  6
CONTINUOUS
 62
     7
 10
-47.029999999999923
 20
-55.952000000000012
 30
0.0
 11
-52.96999999999997
 21
-56.626999999999967
 31
0.0
  0
LINE
  5
B8
  8
DATA
  6
CONTINUOUS
 62
     7
 10
-47.029999999999923
 20
-55.457000000000001
 30
0.0
 11
-52.96999999999997
 21
-56.131999999999962
 31
0.0
  0
LINE
  5
B9
  8
DATA
  6
CONTINUOUS
 62
     7
 10
-47.029999999999923
 20
-53.972000000000001
 30
0.0
 11
-52.96999999999997
 21
-54.646999999999927
 31
0.0
  0
LINE
  5
BA
  8
DATA
  6
CONTINUOUS
 62
     7
 10
-47.029999999999923
 20
-53.47699999999999
 30
0.0
 11
-52.96999999999997
 21
-54.152000000000001
 31
0.0
  0
LINE
  5
BB
  8
DATA
  6
CONTINUOUS
 62
     7
 10
-47.029999999999923
 20
-51.991999999999983
 30
0.0
 11
-52.96999999999997
 21
-52.666999999999987
 31
0.0
  0
LINE
  5
BC
  8
DATA
  6
CONTINUOUS
 62
     7
 10
-47.029999999999923
 20
-51.496999999999971
 30
0.0
 11
-52.96999999999997
 21
-52.171999999999983
 31
0.0
  0
LINE
  5
BD
  8
DATA
  6
CONTINUOUS
 62
     7
 10
-47.029999999999923
 20
-50.012000000000022
 30
0.0
 11
-52.96999999999997
 21
-50.686999999999969
 31
0.0
  0
LINE
  5
BE
  8
DATA
  6
CONTINUOUS
 62
     7
 10
-47.029999999999923
 20
-49.51700000000001
 30
0.0
 11
-52.96999999999997
 21
-50.191999999999972
 31
0.0
  0
LINE
  5
BF
  8
DATA
  6
CONTINUOUS
 62
     7
 10
-47.029999999999923
 20
-48.031999999999996
 30
0.0
 11
-52.96999999999997
 21
-48.707000000000008
 31
0.0
  0
LINE
  5
C0
  8
DATA
  6
CONTINUOUS
 62
     7
 10
-47.029999999999923
 20
-47.536999999999992
 30
0.0
 11
-52.96999999999997
 21
-48.21200000000001
 31
0.0
  0
LINE
  5
C1
  8
DATA
  6
CONTINUOUS
 62
     7
 10
-47.029999999999923
 20
-46.051999999999978
 30
0.0
 11
-52.96999999999997
 21
-46.726999999999983
 31
0.0
  0
LINE
  5
C2
  8
DATA
  6
CONTINUOUS
 62
     7
 10
-47.029999999999923
 20
-45.556999999999967
 30
0.0
 11
-52.96999999999997
 21
-46.231999999999992
 31
0.0
  0
LINE
  5
C3
  8
DATA
  6
CONTINUOUS
 62
     7
 10
-47.029999999999923
 20
-44.07199999999996
 30
0.0
 11
-52.96999999999997
 21
-44.746999999999971
 31
0.0
  0
LINE
  5
C4
  8
DATA
  6
CONTINUOUS
 62
     7
 10
-47.029999999999923
 20
-43.577000000000012
 30
0.0
 11
-52.96999999999997
 21
-44.251999999999967
 31
0.0
  0
LINE
  5
C5
  8
DATA
  6
CONTINUOUS
 62
     7
 10
-47.029999999999923
 20
-42.091999999999999
 30
0.0
 11
-52.96999999999997
 21
-42.766999999999953
 31
0.0
  0
LINE
  5
C6
  8
DATA
  6
CONTINUOUS
 62
     7
 10
-47.029999999999923
 20
-41.596999999999987
 30
0.0
 11
-52.96999999999997
 21
-42.272000000000013
 31
0.0
  0
LINE
  5
C7
  8
DATA
  6
CONTINUOUS
 62
     7
 10
-47.029999999999923
 20
-40.111999999999981
 30
0.0
 11
-52.96999999999997
 21
-40.786999999999992
 31
0.0
  0
LINE
  5
C8
  8
DATA
  6
CONTINUOUS
 62
     7
 10
-47.029999999999923
 20
-39.616999999999983
 30
0.0
 11
-52.96999999999997
 21
-40.29199999999998
 31
0.0
  0
LINE
  5
C9
  8
DATA
  6
CONTINUOUS
 62
     7
 10
-47.029999999999923
 20
-38.131999999999962
 30
0.0
 11
-52.96999999999997
 21
-38.806999999999967
 31
0.0
  0
LINE
  5
CA
  8
DATA
  6
CONTINUOUS
 62
     7
 10
-47.029999999999923
 20
-37.637000000000022
 30
0.0
 11
-52.96999999999997
 21
-38.311999999999969
 31
0.0
  0
LINE
  5
CB
  8
DATA
  6
CONTINUOUS
 62
     7
 10
-47.029999999999923
 20
-36.152000000000001
 30
0.0
 11
-52.96999999999997
 21
-36.826999999999963
 31
0.0
  0
LINE
  5
CC
  8
DATA
  6
CONTINUOUS
 62
     7
 10
-47.029999999999923
 20
-35.656999999999996
 30
0.0
 11
-52.96999999999997
 21
-36.331999999999951
 31
0.0
  0
LINE
  5
CD
  8
DATA
  6
CONTINUOUS
 62
     7
 10
-47.029999999999923
 20
-34.171999999999983
 30
0.0
 11
-52.96999999999997
 21
-34.847000000000001
 31
0.0
  0
LINE
  5
CE
  8
DATA
  6
CONTINUOUS
 62
     7
 10
-47.029999999999923
 20
-33.676999999999978
 30
0.0
 11
-52.96999999999997
 21
-34.35199999999999
 31
0.0
  0
LINE
  5
CF
  8
DATA
  6
CONTINUOUS
 62
     7
 10
-47.029999999999923
 20
-32.191999999999972
 30
0.0
 11
-52.96999999999997
 21
-32.866999999999983
 31
0.0
  0
LINE
  5
D0
  8
DATA
  6
CONTINUOUS
 62
     7
 10
-47.029999999999923
 20
-31.69700000000001
 30
0.0
 11
-52.96999999999997
 21
-32.371999999999957
 31
0.0
  0
LINE
  5
D1
  8
DATA
  6
CONTINUOUS
 62
     7
 10
-47.029999999999923
 20
-30.212
 30
0.0
 11
-52.96999999999997
 21
-30.886999999999961
 31
0.0
  0
LINE
  5
D2
  8
DATA
  6
CONTINUOUS
 62
     7
 10
-47.029999999999923
 20
-29.716999999999999
 30
0.0
 11
-52.96999999999997
 21
-30.39199999999996
 31
0.0
  0
LINE
  5
D3
  8
DATA
  6
CONTINUOUS
 62
     7
 10
-47.029999999999923
 20
-28.231999999999989
 30
0.0
 11
-52.96999999999997
 21
-28.907
 31
0.0
  0
LINE
  5
D4
  8
DATA
  6
CONTINUOUS
 62
     7
 10
-47.029999999999923
 20
-27.736999999999981
 30
0.0
 11
-52.96999999999997
 21
-28.411999999999988
 31
0.0
  0
LINE
  5
D5
  8
DATA
  6
CONTINUOUS
 62
     7
 10
-47.029999999999923
 20
-26.25199999999997
 30
0.0
 11
-52.96999999999997
 21
-26.926999999999978
 31
0.0
  0
LINE
  5
D6
  8
DATA
  6
CONTINUOUS
 62
     7
 10
-47.029999999999923
 20
-25.756999999999959
 30
0.0
 11
-52.96999999999997
 21
-26.43199999999997
 31
0.0
  0
LINE
  5
D7
  8
DATA
  6
CONTINUOUS
 62
     7
 10
-47.029999999999923
 20
-24.272000000000009
 30
0.0
 11
-52.96999999999997
 21
-24.94699999999996
 31
0.0
  0
LINE
  5
D8
  8
DATA
  6
CONTINUOUS
 62
     7
 10
-47.029999999999923
 20
-23.777000000000001
 30
0.0
 11
-52.96999999999997
 21
-24.451999999999959
 31
0.0
  0
LINE
  5
D9
  8
DATA
  6
CONTINUOUS
 62
     7
 10
-47.029999999999923
 20
-22.291999999999991
 30
0.0
 11
-52.96999999999997
 21
-22.966999999999999
 31
0.0
  0
LINE
  5
DA
  8
DATA
  6
CONTINUOUS
 62
     7
 10
-47.029999999999923
 20
-21.79699999999999
 30
0.0
 11
-52.96999999999997
 21
-22.471999999999991
 31
0.0
  0
LINE
  5
DB
  8
DATA
  6
CONTINUOUS
 62
     7
 10
-47.029999999999923
 20
-20.311999999999969
 30
0.0
 11
-52.96999999999997
 21
-20.986999999999981
 31
0.0
  0
LINE
  5
DC
  8
DATA
  6
CONTINUOUS
 62
     7
 10
-47.029999999999923
 20
-19.816999999999961
 30
0.0
 11
-52.96999999999997
 21
-20.49199999999998
 31
0.0
  0
LINE
  5
DD
  8
DATA
  6
CONTINUOUS
 62
     7
 10
-47.029999999999923
 20
-18.332000000000011
 30
0.0
 11
-52.96999999999997
 21
-19.006999999999959
 31
0.0
  0
LINE
  5
DE
  8
DATA
  6
CONTINUOUS
 62
     7
 10
-47.584399999999931
 20
-17.900000000000031
 30
0.0
 11
-52.96999999999997
 21
-18.511999999999961
 31
0.0
  0
LINE
  5
DF
  8
DATA
  6
CONTINUOUS
 62
     7
 10
-53.549999999999997
 20
124.10299999999999
 30
0.0
 11
-53.549999999999997
 21
-17.900000000000031
 31
0.0
  0
LINE
  5
E0
  8
DATA
  6
CONTINUOUS
 62
     7
 10
-46.450000000000003
 20
124.10299999999999
 30
0.0
 11
-46.450000000000003
 21
-17.900000000000031
 31
0.0
  0
LINE
  5
E1
  8
DATA
  6
CONTINUOUS
 62
     7
 10
16.449999999999999
 20
124.10299999999999
 30
0.0
 11
16.449999999999999
 21
-17.900000000000031
 31
0.0
  0
LINE
  5
E2
  8
DATA
  6
CONTINUOUS
 62
     7
 10
23.550000000000001
 20
124.10299999999999
 30
0.0
 11
23.550000000000001
 21
-17.900000000000031
 31
0.0
  0
LINE
  5
E3
  8
DATA
  6
CONTINUOUS
 62
     7
 10
22.970000000000091
 20
-17.900000000000031
 30
0.0
 11
22.970000000000091
 21
-77.200000000000003
 31
0.0
  0
LINE
  5
E4
  8
DATA
  6
CONTINUOUS
 62
     7
 10
17.03000000000003
 20
-17.900000000000031
 30
0.0
 11
17.03000000000003
 21
-77.200000000000003
 31
0.0
  0
LINE
  5
E5
  8
DATA
  6
CONTINUOUS
 62
     7
 10
22.970000000000091
 20
-75.751999999999967
 30
0.0
 11
17.03000000000003
 21
-76.426999999999964
 31
0.0
  0
LINE
  5
E6
  8
DATA
  6
CONTINUOUS
 62
     7
 10
22.970000000000091
 20
-75.256999999999977
 30
0.0
 11
17.03000000000003
 21
-75.931999999999974
 31
0.0
  0
LINE
  5
E7
  8
DATA
  6
CONTINUOUS
 62
     7
 10
22.970000000000091
 20
-73.772000000000006
 30
0.0
 11
17.03000000000003
 21
-74.446999999999946
 31
0.0
  0
LINE
  5
E8
  8
DATA
  6
CONTINUOUS
 62
     7
 10
22.970000000000091
 20
-73.277000000000001
 30
0.0
 11
17.03000000000003
 21
-73.951999999999956
 31
0.0
  0
LINE
  5
E9
  8
DATA
  6
CONTINUOUS
 62
     7
 10
22.970000000000091
 20
-71.791999999999973
 30
0.0
 11
17.03000000000003
 21
-72.466999999999999
 31
0.0
  0
LINE
  5
EA
  8
DATA
  6
CONTINUOUS
 62
     7
 10
22.970000000000091
 20
-71.296999999999983
 30
0.0
 11
17.03000000000003
 21
-71.971999999999994
 31
0.0
  0
LINE
  5
EB
  8
DATA
  6
CONTINUOUS
 62
     7
 10
22.970000000000091
 20
-69.811999999999969
 30
0.0
 11
17.03000000000003
 21
-70.486999999999981
 31
0.0
  0
LINE
  5
EC
  8
DATA
  6
CONTINUOUS
 62
     7
 10
22.970000000000091
 20
-69.316999999999965
 30
0.0
 11
17.03000000000003
 21
-69.991999999999976
 31
0.0
  0
LINE
  5
ED
  8
DATA
  6
CONTINUOUS
 62
     7
 10
22.970000000000091
 20
-67.831999999999994
 30
0.0
 11
17.03000000000003
 21
-68.506999999999962
 31
0.0
  0
LINE
  5
EE
  8
DATA
  6
CONTINUOUS
 62
     7
 10
22.970000000000091
 20
-67.337000000000003
 30
0.0
 11
17.03000000000003
 21
-68.011999999999958
 31
0.0
  0
LINE
  5
EF
  8
DATA
  6
CONTINUOUS
 62
     7
 10
22.970000000000091
 20
-65.85199999999999
 30
0.0
 11
17.03000000000003
 21
-66.527000000000001
 31
0.0
  0
LINE
  5
F0
  8
DATA
  6
CONTINUOUS
 62
     7
 10
22.970000000000091
 20
-65.356999999999985
 30
0.0
 11
17.03000000000003
 21
-66.031999999999996
 31
0.0
  0
LINE
  5
F1
  8
DATA
  6
CONTINUOUS
 62
     7
 10
22.970000000000091
 20
-63.871999999999971
 30
0.0
 11
17.03000000000003
 21
-64.546999999999983
 31
0.0
  0
LINE
  5
F2
  8
DATA
  6
CONTINUOUS
 62
     7
 10
22.970000000000091
 20
-63.376999999999981
 30
0.0
 11
17.03000000000003
 21
-64.051999999999978
 31
0.0
  0
LINE
  5
F3
  8
DATA
  6
CONTINUOUS
 62
     7
 10
22.970000000000091
 20
-61.89200000000001
 30
0.0
 11
17.03000000000003
 21
-62.566999999999972
 31
0.0
  0
LINE
  5
F4
  8
DATA
  6
CONTINUOUS
 62
     7
 10
22.970000000000091
 20
-61.397000000000013
 30
0.0
 11
17.03000000000003
 21
-62.07199999999996
 31
0.0
  0
LINE
  5
F5
  8
DATA
  6
CONTINUOUS
 62
     7
 10
22.970000000000091
 20
-59.911999999999992
 30
0.0
 11
17.03000000000003
 21
-60.587000000000003
 31
0.0
  0
LINE
  5
F6
  8
DATA
  6
CONTINUOUS
 62
     7
 10
22.970000000000091
 20
-59.416999999999987
 30
0.0
 11
17.03000000000003
 21
-60.091999999999992
 31
0.0
  0
LINE
  5
F7
  8
DATA
  6
CONTINUOUS
 62
     7
 10
22.970000000000091
 20
-57.931999999999967
 30
0.0
 11
17.03000000000003
 21
-58.606999999999992
 31
0.0
  0
LINE
  5
F8
  8
DATA
  6
CONTINUOUS
 62
     7
 10
22.970000000000091
 20
-57.436999999999962
 30
0.0
 11
17.03000000000003
 21
-58.111999999999981
 31
0.0
  0
LINE
  5
F9
  8
DATA
  6
CONTINUOUS
 62
     7
 10
22.970000000000091
 20
-55.952000000000012
 30
0.0
 11
17.03000000000003
 21
-56.626999999999967
 31
0.0
  0
LINE
  5
FA
  8
DATA
  6
CONTINUOUS
 62
     7
 10
22.970000000000091
 20
-55.457000000000001
 30
0.0
 11
17.03000000000003
 21
-56.131999999999962
 31
0.0
  0
LINE
  5
FB
  8
DATA
  6
CONTINUOUS
 62
     7
 10
22.970000000000091
 20
-53.972000000000001
 30
0.0
 11
17.03000000000003
 21
-54.646999999999927
 31
0.0
  0
LINE
  5
FC
  8
DATA
  6
CONTINUOUS
 62
     7
 10
22.970000000000091
 20
-53.47699999999999
 30
0.0
 11
17.03000000000003
 21
-54.152000000000001
 31
0.0
  0
LINE
  5
FD
  8
DATA
  6
CONTINUOUS
 62
     7
 10
22.970000000000091
 20
-51.991999999999983
 30
0.0
 11
17.03000000000003
 21
-52.666999999999987
 31
0.0
  0
LINE
  5
FE
  8
DATA
  6
CONTINUOUS
 62
     7
 10
22.970000000000091
 20
-51.496999999999971
 30
0.0
 11
17.03000000000003
 21
-52.171999999999983
 31
0.0
  0
LINE
  5
FF
  8
DATA
  6
CONTINUOUS
 62
     7
 10
22.970000000000091
 20
-50.012000000000022
 30
0.0
 11
17.03000000000003
 21
-50.686999999999969
 31
0.0
  0
LINE
  5
100
  8
DATA
  6
CONTINUOUS
 62
     7
 10
22.970000000000091
 20
-49.51700000000001
 30
0.0
 11
17.03000000000003
 21
-50.191999999999972
 31
0.0
  0
LINE
  5
101
  8
DATA
  6
CONTINUOUS
 62
     7
 10
22.970000000000091
 20
-48.031999999999996
 30
0.0
 11
17.03000000000003
 21
-48.707000000000008
 31
0.0
  0
LINE
  5
102
  8
DATA
  6
CONTINUOUS
 62
     7
 10
22.970000000000091
 20
-47.536999999999992
 30
0.0
 11
17.03000000000003
 21
-48.21200000000001
 31
0.0
  0
LINE
  5
103
  8
DATA
  6
CONTINUOUS
 62
     7
 10
22.970000000000091
 20
-46.051999999999978
 30
0.0
 11
17.03000000000003
 21
-46.726999999999983
 31
0.0
  0
LINE
  5
104
  8
DATA
  6
CONTINUOUS
 62
     7
 10
22.970000000000091
 20
-45.556999999999967
 30
0.0
 11
17.03000000000003
 21
-46.231999999999992
 31
0.0
  0
LINE
  5
105
  8
DATA
  6
CONTINUOUS
 62
     7
 10
22.970000000000091
 20
-44.07199999999996
 30
0.0
 11
17.03000000000003
 21
-44.746999999999971
 31
0.0
  0
LINE
  5
106
  8
DATA
  6
CONTINUOUS
 62
     7
 10
22.970000000000091
 20
-43.577000000000012
 30
0.0
 11
17.03000000000003
 21
-44.251999999999967
 31
0.0
  0
LINE
  5
107
  8
DATA
  6
CONTINUOUS
 62
     7
 10
22.970000000000091
 20
-42.091999999999999
 30
0.0
 11
17.03000000000003
 21
-42.766999999999953
 31
0.0
  0
LINE
  5
108
  8
DATA
  6
CONTINUOUS
 62
     7
 10
22.970000000000091
 20
-41.596999999999987
 30
0.0
 11
17.03000000000003
 21
-42.272000000000013
 31
0.0
  0
LINE
  5
109
  8
DATA
  6
CONTINUOUS
 62
     7
 10
22.970000000000091
 20
-40.111999999999981
 30
0.0
 11
17.03000000000003
 21
-40.786999999999992
 31
0.0
  0
LINE
  5
10A
  8
DATA
  6
CONTINUOUS
 62
     7
 10
22.970000000000091
 20
-39.616999999999983
 30
0.0
 11
17.03000000000003
 21
-40.29199999999998
 31
0.0
  0
LINE
  5
10B
  8
DATA
  6
CONTINUOUS
 62
     7
 10
22.970000000000091
 20
-38.131999999999962
 30
0.0
 11
17.03000000000003
 21
-38.806999999999967
 31
0.0
  0
LINE
  5
10C
  8
DATA
  6
CONTINUOUS
 62
     7
 10
22.970000000000091
 20
-37.637000000000022
 30
0.0
 11
17.03000000000003
 21
-38.311999999999969
 31
0.0
  0
LINE
  5
10D
  8
DATA
  6
CONTINUOUS
 62
     7
 10
22.970000000000091
 20
-36.152000000000001
 30
0.0
 11
17.03000000000003
 21
-36.826999999999963
 31
0.0
  0
LINE
  5
10E
  8
DATA
  6
CONTINUOUS
 62
     7
 10
22.970000000000091
 20
-35.656999999999996
 30
0.0
 11
17.03000000000003
 21
-36.331999999999951
 31
0.0
  0
LINE
  5
10F
  8
DATA
  6
CONTINUOUS
 62
     7
 10
22.970000000000091
 20
-34.171999999999983
 30
0.0
 11
17.03000000000003
 21
-34.847000000000001
 31
0.0
  0
LINE
  5
110
  8
DATA
  6
CONTINUOUS
 62
     7
 10
22.970000000000091
 20
-33.676999999999978
 30
0.0
 11
17.03000000000003
 21
-34.35199999999999
 31
0.0
  0
LINE
  5
111
  8
DATA
  6
CONTINUOUS
 62
     7
 10
22.970000000000091
 20
-32.191999999999972
 30
0.0
 11
17.03000000000003
 21
-32.866999999999983
 31
0.0
  0
LINE
  5
112
  8
DATA
  6
CONTINUOUS
 62
     7
 10
22.970000000000091
 20
-31.69700000000001
 30
0.0
 11
17.03000000000003
 21
-32.371999999999957
 31
0.0
  0
LINE
  5
113
  8
DATA
  6
CONTINUOUS
 62
     7
 10
22.970000000000091
 20
-30.212
 30
0.0
 11
17.03000000000003
 21
-30.886999999999961
 31
0.0
  0
LINE
  5
114
  8
DATA
  6
CONTINUOUS
 62
     7
 10
22.970000000000091
 20
-29.716999999999999
 30
0.0
 11
17.03000000000003
 21
-30.39199999999996
 31
0.0
  0
LINE
  5
115
  8
DATA
  6
CONTINUOUS
 62
     7
 10
22.970000000000091
 20
-28.231999999999989
 30
0.0
 11
17.03000000000003
 21
-28.907
 31
0.0
  0
LINE
  5
116
  8
DATA
  6
CONTINUOUS
 62
     7
 10
22.970000000000091
 20
-27.736999999999981
 30
0.0
 11
17.03000000000003
 21
-28.411999999999988
 31
0.0
  0
LINE
  5
117
  8
DATA
  6
CONTINUOUS
 62
     7
 10
22.970000000000091
 20
-26.25199999999997
 30
0.0
 11
17.03000000000003
 21
-26.926999999999978
 31
0.0
  0
LINE
  5
118
  8
DATA
  6
CONTINUOUS
 62
     7
 10
22.970000000000091
 20
-25.756999999999959
 30
0.0
 11
17.03000000000003
 21
-26.43199999999997
 31
0.0
  0
LINE
  5
119
  8
DATA
  6
CONTINUOUS
 62
     7
 10
22.970000000000091
 20
-24.272000000000009
 30
0.0
 11
17.03000000000003
 21
-24.94699999999996
 31
0.0
  0
LINE
  5
11A
  8
DATA
  6
CONTINUOUS
 62
     7
 10
22.970000000000091
 20
-23.777000000000001
 30
0.0
 11
17.03000000000003
 21
-24.451999999999959
 31
0.0
  0
LINE
  5
11B
  8
DATA
  6
CONTINUOUS
 62
     7
 10
22.970000000000091
 20
-22.291999999999991
 30
0.0
 11
17.03000000000003
 21
-22.966999999999999
 31
0.0
  0
LINE
  5
11C
  8
DATA
  6
CONTINUOUS
 62
     7
 10
22.970000000000091
 20
-21.79699999999999
 30
0.0
 11
17.03000000000003
 21
-22.471999999999991
 31
0.0
  0
LINE
  5
11D
  8
DATA
  6
CONTINUOUS
 62
     7
 10
22.970000000000091
 20
-20.311999999999969
 30
0.0
 11
17.03000000000003
 21
-20.986999999999981
 31
0.0
  0
LINE
  5
11E
  8
DATA
  6
CONTINUOUS
 62
     7
 10
22.970000000000091
 20
-19.816999999999961
 30
0.0
 11
17.03000000000003
 21
-20.49199999999998
 31
0.0
  0
LINE
  5
11F
  8
DATA
  6
CONTINUOUS
 62
     7
 10
22.970000000000091
 20
-18.332000000000011
 30
0.0
 11
17.03000000000003
 21
-19.006999999999959
 31
0.0
  0
LINE
  5
120
  8
DATA
  6
CONTINUOUS
 62
     7
 10
22.415600000000079
 20
-17.900000000000031
 30
0.0
 11
17.03000000000003
 21
-18.511999999999961
 31
0.0
  0
LINE
  5
121
  8
DATA
  6
CONTINUOUS
 62
     7
 10
-44.45600000000001
 20
-145.0
 30
0.0
 11
-44.45600000000001
 21
-150.0
 31
0.0
  0
LINE
  5
122
  8
DATA
  6
CONTINUOUS
 62
     7
 10
-55.543999999999983
 20
-145.0
 30
0.0
 11
-55.543999999999983
 21
-150.0
 31
0.0
  0
LINE
  5
123
  8
DATA
  6
CONTINUOUS
 62
     7
 10
-44.45600000000001
 20
-150.0
 30
0.0
 11
-55.543999999999983
 21
-150.0
 31
0.0
  0
LINE
  5
124
  8
DATA
  6
CONTINUOUS
 62
     7
 10
-48.712999999999973
 20
-150.0
 30
0.0
 11
-48.712999999999973
 21
-145.05000000000001
 31
0.0
  0
LINE
  5
125
  8
DATA
  6
CONTINUOUS
 62
     7
 10
-48.712999999999973
 20
-150.0
 30
0.0
 11
-48.712999999999973
 21
-145.0
 31
0.0
  0
LINE
  5
126
  8
DATA
  6
CONTINUOUS
 62
     7
 10
-51.287000000000042
 20
-150.0
 30
0.0
 11
-51.287000000000042
 21
-145.0
 31
0.0
  0
LINE
  5
127
  8
DATA
  6
CONTINUOUS
 62
     7
 10
25.54399999999999
 20
-145.0
 30
0.0
 11
25.54399999999999
 21
-150.0
 31
0.0
  0
LINE
  5
128
  8
DATA
  6
CONTINUOUS
 62
     7
 10
14.45600000000001
 20
-145.0
 30
0.0
 11
14.45600000000001
 21
-150.0
 31
0.0
  0
LINE
  5
129
  8
DATA
  6
CONTINUOUS
 62
     7
 10
25.54399999999999
 20
-150.0
 30
0.0
 11
14.45600000000001
 21
-150.0
 31
0.0
  0
LINE
  5
12A
  8
DATA
  6
CONTINUOUS
 62
     7
 10
-59.5
 20
-145.0
 30
0.0
 11
-40.499999999999993
 21
-145.0
 31
0.0
  0
LINE
  5
12B
  8
DATA
  6
CONTINUOUS
 62
     7
 10
-58.909999999999968
 20
-131.13999999999999
 30
0.0
 11
-41.090000000000032
 21
-131.13999999999999
 31
0.0
  0
LINE
  5
12C
  8
DATA
  6
CONTINUOUS
 62
     7
 10
-41.090000000000032
 20
-131.13999999999999
 30
0.0
 11
-40.499999999999993
 21
-145.0
 31
0.0
  0
LINE
  5
12D
  8
DATA
  6
CONTINUOUS
 62
     7
 10
-58.909999999999968
 20
-131.13999999999999
 30
0.0
 11
-59.5
 21
-145.0
 31
0.0
  0
LINE
  5
12E
  8
DATA
  6
CONTINUOUS
 62
     7
 10
-53.712499999999977
 20
-77.200000000000003
 30
0.0
 11
-46.287500000000009
 21
-77.200000000000003
 31
0.0
  0
LINE
  5
12F
  8
DATA
  6
CONTINUOUS
 62
     7
 10
-45.544999999999959
 20
-97.776999999999987
 30
0.0
 11
-41.090000000000032
 21
-131.13999999999999
 31
0.0
  0
LINE
  5
130
  8
DATA
  6
CONTINUOUS
 62
     7
 10
-54.454999999999991
 20
-97.776999999999987
 30
0.0
 11
-58.909999999999968
 21
-131.13999999999999
 31
0.0
  0
LINE
  5
131
  8
DATA
  6
CONTINUOUS
 62
     7
 10
-45.544999999999959
 20
-97.776999999999987
 30
0.0
 11
-46.13900000000001
 21
-92.826999999999998
 31
0.0
  0
LINE
  5
132
  8
DATA
  6
CONTINUOUS
 62
     7
 10
-46.13900000000001
 20
-92.826999999999998
 30
0.0
 11
-46.287500000000009
 21
-87.876999999999995
 31
0.0
  0
LINE
  5
133
  8
DATA
  6
CONTINUOUS
 62
     7
 10
-46.287500000000009
 20
-87.876999999999995
 30
0.0
 11
-46.287500000000009
 21
-77.200000000000003
 31
0.0
  0
LINE
  5
134
  8
DATA
  6
CONTINUOUS
 62
     7
 10
-54.454999999999991
 20
-97.776999999999987
 30
0.0
 11
-53.794020771513317
 21
-92.826999999999998
 31
0.0
  0
LINE
  5
135
  8
DATA
  6
CONTINUOUS
 62
     7
 10
-53.794020771513317
 20
-92.826999999999998
 30
0.0
 11
-53.712499999999977
 21
-87.876999999999995
 31
0.0
  0
LINE
  5
136
  8
DATA
  6
CONTINUOUS
 62
     7
 10
-53.712499999999977
 20
-87.876999999999995
 30
0.0
 11
-53.712499999999977
 21
-77.200000000000003
 31
0.0
  0
LINE
  5
137
  8
DATA
  6
CONTINUOUS
 62
     7
 10
-49.009999999999991
 20
-145.0
 30
0.0
 11
-49.009999999999991
 21
-131.13999999999999
 31
0.0
  0
LINE
  5
138
  8
DATA
  6
CONTINUOUS
 62
     7
 10
-49.009999999999991
 20
-145.0
 30
0.0
 11
-49.009999999999991
 21
-131.13999999999999
 31
0.0
  0
LINE
  5
139
  8
DATA
  6
CONTINUOUS
 62
     7
 10
-50.990000000000009
 20
-145.0
 30
0.0
 11
-50.990000000000009
 21
-131.13999999999999
 31
0.0
  0
TEXT
  5
13A
  8
DATA
 62
     7
 10
-55.871983906250001
 20
-128.79328749999999
 30
0.0
 40
2.750343749999999
  1
GNK30 M
 41
0.7
 72
     1
 11
-50.0
 21
-129.16
 31
0.0
 73
     1
  0
POLYLINE
  5
13B
  8
DATA
  6
CONTINUOUS
 62
     7
 66
     1
 10
0.0
 20
0.0
 30
0.0
 70
     1
  0
VERTEX
  5
2E4
  8
DATA
  6
CONTINUOUS
 62
     7
 10
-52.831800143935197
 20
-117.28
 30
0.0
  0
VERTEX
  5
2E5
  8
DATA
  6
CONTINUOUS
 62
     7
 10
-52.570083787672282
 20
-116.7177777777777
 30
0.0
  0
VERTEX
  5
2E6
  8
DATA
  6
CONTINUOUS
 62
     7
 10
-51.822995418369942
 20
-116.7177777777777
 30
0.0
  0
VERTEX
  5
2E7
  8
DATA
  6
CONTINUOUS
 62
     7
 10
-51.579328465987203
 20
-117.28
 30
0.0
  0
VERTEX
  5
2E8
  8
DATA
  6
CONTINUOUS
 62
     7
 10
-51.046842588843333
 20
-117.28
 30
0.0
  0
VERTEX
  5
2E9
  8
DATA
  6
CONTINUOUS
 62
     7
 10
-52.004274213862459
 20
-115.3
 30
0.0
  0
VERTEX
  5
2EA
  8
DATA
  6
CONTINUOUS
 62
     7
 10
-52.406854396059998
 20
-115.3
 30
0.0
  0
VERTEX
  5
2EB
  8
DATA
  6
CONTINUOUS
 62
     7
 10
-53.323842588843313
 20
-117.28
 30
0.0
  0
SEQEND
  5
2EC
  8
DATA
  6
CONTINUOUS
 62
     7
  0
POLYLINE
  5
146
  8
DATA
  6
CONTINUOUS
 62
     7
 66
     1
 10
0.0
 20
0.0
 30
0.0
 70
     1
  0
VERTEX
  5
2ED
  8
DATA
  6
CONTINUOUS
 62
     7
 10
-52.40108469404197
 20
-116.5019236743193
 30
0.0
  0
VERTEX
  5
2EE
  8
DATA
  6
CONTINUOUS
 62
     7
 10
-51.915315305958082
 20
-116.5019236743193
 30
0.0
  0
VERTEX
  5
2EF
  8
DATA
  6
CONTINUOUS
 62
     7
 10
-52.149525546641371
 20
-115.9692888888888
 30
0.0
  0
SEQEND
  5
2F0
  8
DATA
  6
CONTINUOUS
 62
     7
  0
POLYLINE
  5
14C
  8
DATA
  6
CONTINUOUS
 62
     7
 66
     1
 10
0.0
 20
0.0
 30
0.0
 70
     1
  0
VERTEX
  5
2F1
  8
DATA
  6
CONTINUOUS
 62
     7
 10
-49.578153405161743
 20
-116.0983688521974
 30
0.0
  0
VERTEX
  5
2F2
  8
DATA
  6
CONTINUOUS
 62
     7
 10
-48.458075000000008
 20
-117.28100790732189
 30
0.0
  0
VERTEX
  5
2F3
  8
DATA
  6
CONTINUOUS
 62
     7
 10
-49.037587268169538
 20
-117.28100790732189
 30
0.0
  0
VERTEX
  5
2F4
  8
DATA
  6
CONTINUOUS
 62
     7
 10
-49.89031935348828
 20
-116.3389913534666
 30
0.0
  0
VERTEX
  5
2F5
  8
DATA
  6
CONTINUOUS
 62
     7
 10
-50.170676735587683
 20
-116.55509530359851
 30
0.0
  0
VERTEX
  5
2F6
  8
DATA
  6
CONTINUOUS
 62
     7
 10
-50.170676735587683
 20
-117.2797679398216
 30
0.0
  0
VERTEX
  5
2F7
  8
DATA
  6
CONTINUOUS
 62
     7
 10
-50.735075000000052
 20
-117.2797679398216
 30
0.0
  0
VERTEX
  5
2F8
  8
DATA
  6
CONTINUOUS
 62
     7
 10
-50.735075000000052
 20
-115.3
 30
0.0
  0
VERTEX
  5
2F9
  8
DATA
  6
CONTINUOUS
 62
     7
 10
-50.170676735587683
 20
-115.3
 30
0.0
  0
VERTEX
  5
2FA
  8
DATA
  6
CONTINUOUS
 62
     7
 10
-50.170676735587683
 20
-116.1227275962721
 30
0.0
  0
VERTEX
  5
2FB
  8
DATA
  6
CONTINUOUS
 62
     7
 10
-49.120694047619068
 20
-115.3
 30
0.0
  0
VERTEX
  5
2FC
  8
DATA
  6
CONTINUOUS
 62
     7
 10
-48.542408333333348
 20
-115.3
 30
0.0
  0
SEQEND
  5
2FD
  8
DATA
  6
CONTINUOUS
 62
     7
  0
POLYLINE
  5
15B
  8
DATA
  6
CONTINUOUS
 62
     7
 66
     1
 10
0.0
 20
0.0
 30
0.0
 70
   129
  0
VERTEX
  5
2FE
  8
DATA
  6
CONTINUOUS
 62
     7
 10
-46.911203441387997
 20
-117.2830443710692
 30
0.0
  0
VERTEX
  5
2FF
  8
DATA
  6
CONTINUOUS
 62
     7
 10
-46.541561687931171
 20
-117.2830443710692
 30
0.0
  0
VERTEX
  5
300
  8
DATA
  6
CONTINUOUS
 62
     7
 10
-46.538280843965588
 20
-116.18783442321261
 30
0.0
  0
VERTEX
  5
301
  8
DATA
  6
CONTINUOUS
 62
     7
 10
-47.528002106919637
 20
-116.18783442321261
 30
0.0
  0
VERTEX
  5
302
  8
DATA
  6
CONTINUOUS
 62
     7
 10
-47.528002106919637
 20
-116.4189648722308
 30
0.0
  0
VERTEX
  5
303
  8
DATA
  6
CONTINUOUS
 62
     7
 10
-46.976820320699922
 20
-116.4189648722308
 30
0.0
  0
VERTEX
  5
304
  8
DATA
  6
CONTINUOUS
 62
     7
 10
-46.976820320699922
 20
-116.6231912478183
 30
0.0
  0
VERTEX
  5
305
  8
DATA
  6
CONTINUOUS
 62
     7
 10
-46.9899436965623
 20
-116.73692210368441
 30
0.0
  0
VERTEX
  5
306
  8
DATA
  6
CONTINUOUS
 62
     7
 10
-47.042849637534331
 20
-116.8540910968852
 30
0.0
  0
VERTEX
  5
307
  8
DATA
  6
CONTINUOUS
 62
     7
 10
-47.112303496246852
 20
-116.92135128046191
 30
0.0
  0
VERTEX
  5
308
  8
DATA
  6
CONTINUOUS
 62
     7
 10
-47.196636866394662
 20
-116.9857847829183
 30
0.0
  0
VERTEX
  5
309
  8
DATA
  6
CONTINUOUS
 62
     7
 10
-47.268815433637762
 20
-117.0139117687776
 30
0.0
  0
VERTEX
  5
30A
  8
DATA
  6
CONTINUOUS
 62
     7
 10
-47.368993314249003
 20
-117.0304210865646
 30
0.0
  0
VERTEX
  5
30B
  8
DATA
  6
CONTINUOUS
 62
     7
 10
-47.471134144849323
 20
-117.04265021085131
 30
0.0
  0
VERTEX
  5
30C
  8
DATA
  6
CONTINUOUS
 62
     7
 10
-47.55862331726518
 20
-117.0316439989933
 30
0.0
  0
VERTEX
  5
30D
  8
DATA
  6
CONTINUOUS
 62
     7
 10
-47.642396978048438
 20
-117.0120774001346
 30
0.0
  0
VERTEX
  5
30E
  8
DATA
  6
CONTINUOUS
 62
     7
 10
-47.711729368992891
 20
-116.9753900272746
 30
0.0
  0
VERTEX
  5
30F
  8
DATA
  6
CONTINUOUS
 62
     7
 10
-47.799218541408649
 20
-116.92647353012779
 30
0.0
  0
VERTEX
  5
310
  8
DATA
  6
CONTINUOUS
 62
     7
 10
-47.86867240012122
 20
-116.8592133465511
 30
0.0
  0
VERTEX
  5
311
  8
DATA
  6
CONTINUOUS
 62
     7
 10
-47.930452300032456
 20
-116.73692210368441
 30
0.0
  0
VERTEX
  5
312
  8
DATA
  6
CONTINUOUS
 62
     7
 10
-47.985133032792312
 20
-116.5779434879576
 30
0.0
  0
VERTEX
  5
313
  8
DATA
  6
CONTINUOUS
 62
     7
 10
-47.985133032792312
 20
-116.1376950136372
 30
0.0
  0
VERTEX
  5
314
  8
DATA
  6
CONTINUOUS
 62
     7
 10
-47.941388446584419
 20
-115.9481435871938
 30
0.0
  0
VERTEX
  5
315
  8
DATA
  6
CONTINUOUS
 62
     7
 10
-47.832026981064637
 20
-115.76470672289361
 30
0.0
  0
VERTEX
  5
316
  8
DATA
  6
CONTINUOUS
 62
     7
 10
-47.756259135196487
 20
-115.6913319771736
 30
0.0
  0
VERTEX
  5
317
  8
DATA
  6
CONTINUOUS
 62
     7
 10
-47.66798478278497
 20
-115.60584573841921
 30
0.0
  0
VERTEX
  5
318
  8
DATA
  6
CONTINUOUS
 62
     7
 10
-47.602367903473123
 20
-115.5724935812737
 30
0.0
  0
VERTEX
  5
319
  8
DATA
  6
CONTINUOUS
 62
     7
 10
-47.493006437953277
 20
-115.54470011698579
 30
0.0
  0
VERTEX
  5
31A
  8
DATA
  6
CONTINUOUS
 62
     7
 10
-47.414266182779102
 20
-115.5372450111615
 30
0.0
  0
VERTEX
  5
31B
  8
DATA
  6
CONTINUOUS
 62
     7
 10
-47.319121707776851
 20
-115.5447327420453
 30
0.0
  0
VERTEX
  5
31C
  8
DATA
  6
CONTINUOUS
 62
     7
 10
-47.198824095705042
 20
-115.58356542713901
 30
0.0
  0
VERTEX
  5
31D
  8
DATA
  6
CONTINUOUS
 62
     7
 10
-47.110241308634038
 20
-115.6375238303122
 30
0.0
  0
VERTEX
  5
31E
  8
DATA
  6
CONTINUOUS
 62
     7
 10
-47.066496722426102
 20
-115.6913319771736
 30
0.0
  0
VERTEX
  5
31F
  8
DATA
  6
CONTINUOUS
 62
     7
 10
-47.027126594839039
 20
-115.76470672289361
 30
0.0
  0
VERTEX
  5
320
  8
DATA
  6
CONTINUOUS
 62
     7
 10
-47.011815989666282
 20
-115.81766038438511
 30
0.0
  0
VERTEX
  5
321
  8
DATA
  6
CONTINUOUS
 62
     7
 10
-46.994318155183123
 20
-115.95548106176579
 30
0.0
  0
VERTEX
  5
322
  8
DATA
  6
CONTINUOUS
 62
     7
 10
-46.537187229310341
 20
-115.95548106176579
 30
0.0
  0
VERTEX
  5
323
  8
DATA
  6
CONTINUOUS
 62
     7
 10
-46.534999999999961
 20
-115.869877191759
 30
0.0
  0
VERTEX
  5
324
  8
DATA
  6
CONTINUOUS
 62
     7
 10
-46.541561687931171
 20
-115.8136232200404
 30
0.0
  0
VERTEX
  5
325
  8
DATA
  6
CONTINUOUS
 62
     7
 10
-46.585306274139093
 20
-115.7035611014602
 30
0.0
  0
VERTEX
  5
326
  8
DATA
  6
CONTINUOUS
 62
     7
 10
-46.639987006898991
 20
-115.5996135450235
 30
0.0
  0
VERTEX
  5
327
  8
DATA
  6
CONTINUOUS
 62
     7
 10
-46.734696814234212
 20
-115.5078951128735
 30
0.0
  0
VERTEX
  5
328
  8
DATA
  6
CONTINUOUS
 62
     7
 10
-46.843399332765777
 20
-115.4210683304381
 30
0.0
  0
VERTEX
  5
329
  8
DATA
  6
CONTINUOUS
 62
     7
 10
-47.001973457769452
 20
-115.35224149006331
 30
0.0
  0
VERTEX
  5
32A
  8
DATA
  6
CONTINUOUS
 62
     7
 10
-47.227258076740199
 20
-115.309021622782
 30
0.0
  0
VERTEX
  5
32B
  8
DATA
  6
CONTINUOUS
 62
     7
 10
-47.449261851745412
 20
-115.3
 30
0.0
  0
VERTEX
  5
32C
  8
DATA
  6
CONTINUOUS
 62
     7
 10
-47.628614655197786
 20
-115.3122291242866
 30
0.0
  0
VERTEX
  5
32D
  8
DATA
  6
CONTINUOUS
 62
     7
 10
-47.833779021567459
 20
-115.3706890878741
 30
0.0
  0
VERTEX
  5
32E
  8
DATA
  6
CONTINUOUS
 62
     7
 10
-48.081147885409678
 20
-115.48529100836279
 30
0.0
  0
VERTEX
  5
32F
  8
DATA
  6
CONTINUOUS
 62
     7
 10
-48.197294275900717
 20
-115.5739323840215
 30
0.0
  0
VERTEX
  5
330
  8
DATA
  6
CONTINUOUS
 62
     7
 10
-48.286970677626933
 20
-115.6791028528869
 30
0.0
  0
VERTEX
  5
331
  8
DATA
  6
CONTINUOUS
 62
     7
 10
-48.385395996594752
 20
-115.83120652610231
 30
0.0
  0
VERTEX
  5
332
  8
DATA
  6
CONTINUOUS
 62
     7
 10
-48.440076729354637
 20
-115.9762705730531
 30
0.0
  0
VERTEX
  5
333
  8
DATA
  6
CONTINUOUS
 62
     7
 10
-48.47069793970018
 20
-116.10712220292061
 30
0.0
  0
VERTEX
  5
334
  8
DATA
  6
CONTINUOUS
 62
     7
 10
-48.483978351561689
 20
-116.20495519721401
 30
0.0
  0
VERTEX
  5
335
  8
DATA
  6
CONTINUOUS
 62
     7
 10
-48.483978351561689
 20
-116.3969524485148
 30
0.0
  0
VERTEX
  5
336
  8
DATA
  6
CONTINUOUS
 62
     7
 10
-48.468824782388019
 20
-116.5706060133856
 30
0.0
  0
VERTEX
  5
337
  8
DATA
  6
CONTINUOUS
 62
     7
 10
-48.424766124181872
 20
-116.7234700669691
 30
0.0
  0
VERTEX
  5
338
  8
DATA
  6
CONTINUOUS
 62
     7
 10
-48.367898162111587
 20
-116.8592133465511
 30
0.0
  0
VERTEX
  5
339
  8
DATA
  6
CONTINUOUS
 62
     7
 10
-48.251975008660622
 20
-117.0206377871353
 30
0.0
  0
VERTEX
  5
33A
  8
DATA
  6
CONTINUOUS
 62
     7
 10
-48.085745581070569
 20
-117.1490435921454
 30
0.0
  0
VERTEX
  5
33B
  8
DATA
  6
CONTINUOUS
 62
     7
 10
-47.887801328479732
 20
-117.2341439099756
 30
0.0
  0
VERTEX
  5
33C
  8
DATA
  6
CONTINUOUS
 62
     7
 10
-47.790469624167088
 20
-117.2566598858681
 30
0.0
  0
VERTEX
  5
33D
  8
DATA
  6
CONTINUOUS
 62
     7
 10
-47.62408597924729
 20
-117.2792837657985
 30
0.0
  0
VERTEX
  5
33E
  8
DATA
  6
CONTINUOUS
 62
     7
 10
-47.427543775971223
 20
-117.2829525030845
 30
0.0
  0
VERTEX
  5
33F
  8
DATA
  6
CONTINUOUS
 62
     7
 10
-47.26803025364211
 20
-117.2566598858681
 30
0.0
  0
VERTEX
  5
340
  8
DATA
  6
CONTINUOUS
 62
     7
 10
-47.108632444903087
 20
-117.2000707782291
 30
0.0
  0
VERTEX
  5
341
  8
DATA
  6
CONTINUOUS
 62
     7
 10
-47.01957291249596
 20
-117.1502762694621
 30
0.0
  0
VERTEX
  5
342
  8
DATA
  6
CONTINUOUS
 62
     7
 10
-46.963696944837579
 20
-117.10501874471331
 30
0.0
  0
SEQEND
  5
343
  8
DATA
  6
CONTINUOUS
 62
     7
  0
LINE
  5
1A2
  8
DATA
  6
CONTINUOUS
 62
     7
 10
10.5
 20
-145.0
 30
0.0
 11
29.5
 21
-145.0
 31
0.0
  0
LINE
  5
1A3
  8
DATA
  6
CONTINUOUS
 62
     7
 10
11.08999999999997
 20
-131.13999999999999
 30
0.0
 11
28.909999999999972
 21
-131.13999999999999
 31
0.0
  0
LINE
  5
1A4
  8
DATA
  6
CONTINUOUS
 62
     7
 10
28.909999999999972
 20
-131.13999999999999
 30
0.0
 11
29.5
 21
-145.0
 31
0.0
  0
LINE
  5
1A5
  8
DATA
  6
CONTINUOUS
 62
     7
 10
11.08999999999997
 20
-131.13999999999999
 30
0.0
 11
10.5
 21
-145.0
 31
0.0
  0
LINE
  5
1A6
  8
DATA
  6
CONTINUOUS
 62
     7
 10
16.287499999999959
 20
-77.200000000000017
 30
0.0
 11
23.712499999999981
 21
-77.200000000000017
 31
0.0
  0
LINE
  5
1A7
  8
DATA
  6
CONTINUOUS
 62
     7
 10
24.454999999999991
 20
-97.776999999999987
 30
0.0
 11
28.909999999999972
 21
-131.13999999999999
 31
0.0
  0
LINE
  5
1A8
  8
DATA
  6
CONTINUOUS
 62
     7
 10
15.544999999999961
 20
-97.776999999999987
 30
0.0
 11
11.08999999999997
 21
-131.13999999999999
 31
0.0
  0
LINE
  5
1A9
  8
DATA
  6
CONTINUOUS
 62
     7
 10
24.454999999999991
 20
-97.776999999999987
 30
0.0
 11
23.86099999999999
 21
-92.826999999999998
 31
0.0
  0
LINE
  5
1AA
  8
DATA
  6
CONTINUOUS
 62
     7
 10
23.86099999999999
 20
-92.826999999999998
 30
0.0
 11
23.712499999999981
 21
-87.876999999999995
 31
0.0
  0
LINE
  5
1AB
  8
DATA
  6
CONTINUOUS
 62
     7
 10
23.712499999999981
 20
-87.876999999999995
 30
0.0
 11
23.712499999999981
 21
-77.200000000000017
 31
0.0
  0
LINE
  5
1AC
  8
DATA
  6
CONTINUOUS
 62
     7
 10
15.544999999999961
 20
-97.776999999999987
 30
0.0
 11
16.205979228486619
 21
-92.826999999999998
 31
0.0
  0
LINE
  5
1AD
  8
DATA
  6
CONTINUOUS
 62
     7
 10
16.205979228486619
 20
-92.826999999999998
 30
0.0
 11
16.287499999999959
 21
-87.876999999999995
 31
0.0
  0
LINE
  5
1AE
  8
DATA
  6
CONTINUOUS
 62
     7
 10
16.287499999999959
 20
-87.876999999999995
 30
0.0
 11
16.287499999999959
 21
-77.200000000000017
 31
0.0
  0
LINE
  5
1AF
  8
DATA
  6
CONTINUOUS
 62
     7
 10
20.990000000000009
 20
-145.0
 30
0.0
 11
20.990000000000009
 21
-131.13999999999999
 31
0.0
  0
LINE
  5
1B0
  8
DATA
  6
CONTINUOUS
 62
     7
 10
20.990000000000009
 20
-145.0
 30
0.0
 11
20.990000000000009
 21
-131.13999999999999
 31
0.0
  0
LINE
  5
1B1
  8
DATA
  6
CONTINUOUS
 62
     7
 10
19.009999999999991
 20
-145.0
 30
0.0
 11
19.009999999999991
 21
-131.13999999999999
 31
0.0
  0
LINE
  5
1B2
  8
DATA
  6
CONTINUOUS
 62
     7
 10
-45.450000000000003
 20
140.09999999999991
 30
0.0
 11
-46.249999999999972
 21
127.568
 31
0.0
  0
LINE
  5
1B3
  8
DATA
  6
CONTINUOUS
 62
     7
 10
-54.549999999999997
 20
140.09999999999991
 30
0.0
 11
-53.749999999999972
 21
127.568
 31
0.0
  0
LINE
  5
1B4
  8
DATA
  6
CONTINUOUS
 62
     7
 10
-45.899999999999977
 20
149.39999999999989
 30
0.0
 11
-54.100000000000009
 21
149.39999999999989
 31
0.0
  0
LINE
  5
1B5
  8
DATA
  6
CONTINUOUS
 62
     7
 10
-54.199999999999989
 20
149.39999999999989
 30
0.0
 11
-45.799999999999997
 21
149.39999999999989
 31
0.0
  0
LINE
  5
1B6
  8
DATA
  6
CONTINUOUS
 62
     7
 10
-54.199999999999989
 20
149.39999999999989
 30
0.0
 11
-54.199999999999989
 21
145.09999999999991
 31
0.0
  0
LINE
  5
1B7
  8
DATA
  6
CONTINUOUS
 62
     7
 10
-45.799999999999997
 20
149.39999999999989
 30
0.0
 11
-45.799999999999997
 21
145.09999999999991
 31
0.0
  0
LINE
  5
1B8
  8
DATA
  6
CONTINUOUS
 62
     7
 10
-54.199999999999989
 20
145.99999999999989
 30
0.0
 11
-45.799999999999997
 21
146.615297182098
 31
0.0
  0
LINE
  5
1B9
  8
DATA
  6
CONTINUOUS
 62
     7
 10
-54.199999999999989
 20
145.59999999999991
 30
0.0
 11
-45.799999999999997
 21
146.215297182098
 31
0.0
  0
LINE
  5
1BA
  8
DATA
  6
CONTINUOUS
 62
     7
 10
24.54999999999999
 20
140.09999999999991
 30
0.0
 11
23.75
 21
127.568
 31
0.0
  0
LINE
  5
1BB
  8
DATA
  6
CONTINUOUS
 62
     7
 10
15.44999999999999
 20
140.09999999999991
 30
0.0
 11
16.25
 21
127.568
 31
0.0
  0
LINE
  5
1BC
  8
DATA
  6
CONTINUOUS
 62
     7
 10
-45.450000000000003
 20
145.09999999999991
 30
0.0
 11
-54.549999999999997
 21
145.09999999999991
 31
0.0
  0
LINE
  5
1BD
  8
DATA
  6
CONTINUOUS
 62
     7
 10
-50.75
 20
142.59999999999991
 30
0.0
 11
-49.25
 21
142.59999999999991
 31
0.0
  0
LINE
  5
1BE
  8
DATA
  6
CONTINUOUS
 62
     7
 10
-50.75
 20
140.09999999999991
 30
0.0
 11
-49.25
 21
140.09999999999991
 31
0.0
  0
ARC
  5
1BF
  8
DATA
  6
CONTINUOUS
 62
     7
 10
-50.75
 20
141.34999999999991
 30
0.0
 40
1.25
 50
90.0
 51
270.0
  0
ARC
  5
1C0
  8
DATA
  6
CONTINUOUS
 62
     7
 10
-49.25
 20
141.34999999999991
 30
0.0
 40
1.25
 50
270.0
 51
90.0
  0
LINE
  5
1C1
  8
DATA
  6
CONTINUOUS
 62
     7
 10
24.54999999999999
 20
145.09999999999991
 30
0.0
 11
15.44999999999999
 21
145.09999999999991
 31
0.0
  0
LINE
  5
1C2
  8
DATA
  6
CONTINUOUS
 62
     7
 10
-45.450000000000003
 20
145.09999999999991
 30
0.0
 11
-45.450000000000003
 21
140.09999999999991
 31
0.0
  0
ARC
  5
1C3
  8
DATA
  6
CONTINUOUS
 62
     7
 10
-45.450000000000003
 20
141.34999999999991
 30
0.0
 40
1.25
 50
90.0
 51
270.0
  0
LINE
  5
1C4
  8
DATA
  6
CONTINUOUS
 62
     7
 10
-54.549999999999997
 20
145.09999999999991
 30
0.0
 11
-54.549999999999997
 21
140.09999999999991
 31
0.0
  0
ARC
  5
1C5
  8
DATA
  6
CONTINUOUS
 62
     7
 10
-54.549999999999997
 20
141.34999999999991
 30
0.0
 40
1.25
 50
270.0
 51
90.0
  0
LINE
  5
1C6
  8
DATA
  6
CONTINUOUS
 62
     7
 10
19.25
 20
142.59999999999991
 30
0.0
 11
20.75
 21
142.59999999999991
 31
0.0
  0
LINE
  5
1C7
  8
DATA
  6
CONTINUOUS
 62
     7
 10
19.25
 20
140.09999999999991
 30
0.0
 11
20.75
 21
140.09999999999991
 31
0.0
  0
ARC
  5
1C8
  8
DATA
  6
CONTINUOUS
 62
     7
 10
19.25
 20
141.34999999999991
 30
0.0
 40
1.25
 50
90.0
 51
270.0
  0
ARC
  5
1C9
  8
DATA
  6
CONTINUOUS
 62
     7
 10
20.75
 20
141.34999999999991
 30
0.0
 40
1.25
 50
270.0
 51
90.0
  0
LINE
  5
1CA
  8
DATA
  6
CONTINUOUS
 62
     7
 10
24.54999999999999
 20
145.09999999999991
 30
0.0
 11
24.54999999999999
 21
140.09999999999991
 31
0.0
  0
ARC
  5
1CB
  8
DATA
  6
CONTINUOUS
 62
     7
 10
24.54999999999999
 20
141.34999999999991
 30
0.0
 40
1.25
 50
90.0
 51
270.0
  0
LINE
  5
1CC
  8
DATA
  6
CONTINUOUS
 62
     7
 10
15.44999999999999
 20
145.09999999999991
 30
0.0
 11
15.44999999999999
 21
140.09999999999991
 31
0.0
  0
ARC
  5
1CD
  8
DATA
  6
CONTINUOUS
 62
     7
 10
15.44999999999999
 20
141.34999999999991
 30
0.0
 40
1.25
 50
270.0
 51
90.0
  0
LINE
  5
1CE
  8
DATA
  6
CONTINUOUS
 62
     7
 10
-45.799999999999997
 20
145.59999999999991
 30
0.0
 11
-54.199999999999989
 21
145.59999999999991
 31
0.0
  0
LINE
  5
1CF
  8
DATA
  6
CONTINUOUS
 62
     7
 10
-54.199999999999989
 20
146.39999999999989
 30
0.0
 11
-45.799999999999997
 21
147.0152971820979
 31
0.0
  0
LINE
  5
1D0
  8
DATA
  6
CONTINUOUS
 62
     7
 10
-54.199999999999989
 20
146.7999999999999
 30
0.0
 11
-45.799999999999997
 21
147.41529718209799
 31
0.0
  0
LINE
  5
1D1
  8
DATA
  6
CONTINUOUS
 62
     7
 10
-54.199999999999989
 20
147.19999999999999
 30
0.0
 11
-45.799999999999997
 21
147.81529718209799
 31
0.0
  0
LINE
  5
1D2
  8
DATA
  6
CONTINUOUS
 62
     7
 10
-54.199999999999989
 20
147.59999999999991
 30
0.0
 11
-45.799999999999997
 21
148.215297182098
 31
0.0
  0
LINE
  5
1D3
  8
DATA
  6
CONTINUOUS
 62
     7
 10
-54.199999999999989
 20
147.99999999999989
 30
0.0
 11
-45.799999999999997
 21
148.615297182098
 31
0.0
  0
LINE
  5
1D4
  8
DATA
  6
CONTINUOUS
 62
     7
 10
-54.199999999999989
 20
148.39999999999989
 30
0.0
 11
-45.799999999999997
 21
149.01529718209801
 31
0.0
  0
LINE
  5
1D5
  8
DATA
  6
CONTINUOUS
 62
     7
 10
-54.199999999999989
 20
148.7999999999999
 30
0.0
 11
-46.008836206896127
 21
149.39999999999989
 31
0.0
  0
LINE
  5
1D6
  8
DATA
  6
CONTINUOUS
 62
     7
 10
-54.199999999999989
 20
149.19999999999999
 30
0.0
 11
-51.469612068965432
 21
149.39999999999989
 31
0.0
  0
LINE
  5
1D7
  8
DATA
  6
CONTINUOUS
 62
     7
 10
24.100000000000019
 20
149.39999999999989
 30
0.0
 11
15.89999999999997
 21
149.39999999999989
 31
0.0
  0
LINE
  5
1D8
  8
DATA
  6
CONTINUOUS
 62
     7
 10
15.799999999999979
 20
149.39999999999989
 30
0.0
 11
24.199999999999989
 21
149.39999999999989
 31
0.0
  0
LINE
  5
1D9
  8
DATA
  6
CONTINUOUS
 62
     7
 10
15.799999999999979
 20
149.39999999999989
 30
0.0
 11
15.799999999999979
 21
145.09999999999991
 31
0.0
  0
LINE
  5
1DA
  8
DATA
  6
CONTINUOUS
 62
     7
 10
24.199999999999989
 20
149.39999999999989
 30
0.0
 11
24.199999999999989
 21
145.09999999999991
 31
0.0
  0
LINE
  5
1DB
  8
DATA
  6
CONTINUOUS
 62
     7
 10
15.799999999999979
 20
145.99999999999989
 30
0.0
 11
24.199999999999989
 21
146.615297182098
 31
0.0
  0
LINE
  5
1DC
  8
DATA
  6
CONTINUOUS
 62
     7
 10
15.799999999999979
 20
145.59999999999991
 30
0.0
 11
24.199999999999989
 21
146.215297182098
 31
0.0
  0
LINE
  5
1DD
  8
DATA
  6
CONTINUOUS
 62
     7
 10
24.199999999999989
 20
145.59999999999991
 30
0.0
 11
15.799999999999979
 21
145.59999999999991
 31
0.0
  0
LINE
  5
1DE
  8
DATA
  6
CONTINUOUS
 62
     7
 10
15.799999999999979
 20
146.39999999999989
 30
0.0
 11
24.199999999999989
 21
147.0152971820979
 31
0.0
  0
LINE
  5
1DF
  8
DATA
  6
CONTINUOUS
 62
     7
 10
15.799999999999979
 20
146.7999999999999
 30
0.0
 11
24.199999999999989
 21
147.41529718209799
 31
0.0
  0
LINE
  5
1E0
  8
DATA
  6
CONTINUOUS
 62
     7
 10
15.799999999999979
 20
147.19999999999999
 30
0.0
 11
24.199999999999989
 21
147.81529718209799
 31
0.0
  0
LINE
  5
1E1
  8
DATA
  6
CONTINUOUS
 62
     7
 10
15.799999999999979
 20
147.59999999999991
 30
0.0
 11
24.199999999999989
 21
148.215297182098
 31
0.0
  0
LINE
  5
1E2
  8
DATA
  6
CONTINUOUS
 62
     7
 10
15.799999999999979
 20
147.99999999999989
 30
0.0
 11
24.199999999999989
 21
148.615297182098
 31
0.0
  0
LINE
  5
1E3
  8
DATA
  6
CONTINUOUS
 62
     7
 10
15.799999999999979
 20
148.39999999999989
 30
0.0
 11
24.199999999999989
 21
149.01529718209801
 31
0.0
  0
LINE
  5
1E4
  8
DATA
  6
CONTINUOUS
 62
     7
 10
15.799999999999979
 20
148.7999999999999
 30
0.0
 11
23.991163793103851
 21
149.39999999999989
 31
0.0
  0
LINE
  5
1E5
  8
DATA
  6
CONTINUOUS
 62
     7
 10
15.799999999999979
 20
149.19999999999999
 30
0.0
 11
18.530387931034529
 21
149.39999999999989
 31
0.0
  0
LINE
  5
1E6
  8
DATA
  6
CONTINUOUS
 62
     7
 10
84.500000000000014
 20
145.1999999999999
 30
0.0
 11
95.5
 21
145.1999999999999
 31
0.0
  0
LINE
  5
1E7
  8
DATA
  6
CONTINUOUS
 62
     7
 10
95.5
 20
145.1999999999999
 30
0.0
 11
95.5
 21
143.6999999999999
 31
0.0
  0
LINE
  5
1E8
  8
DATA
  6
CONTINUOUS
 62
     7
 10
84.500000000000014
 20
145.1999999999999
 30
0.0
 11
84.500000000000014
 21
143.6999999999999
 31
0.0
  0
LINE
  5
1E9
  8
DATA
  6
CONTINUOUS
 62
     7
 10
83.555459750660987
 20
139.72605366578529
 30
0.0
 11
84.099999997764812
 21
139.00000000298019
 31
0.0
  0
LINE
  5
1EA
  8
DATA
  6
CONTINUOUS
 62
     7
 10
84.500000003725305
 20
138.7999999999999
 30
0.0
 11
95.499999996274724
 21
138.7999999999999
 31
0.0
  0
CIRCLE
  5
1EB
  8
DATA
  6
CONTINUOUS
 62
     7
 10
90.0
 20
170.0
 30
0.0
 40
5.5
  0
CIRCLE
  5
1EC
  8
DATA
  6
CONTINUOUS
 62
     7
 10
90.0
 20
170.0
 30
0.0
 40
4.4000000000000332
  0
CIRCLE
  5
1ED
  8
DATA
  6
CONTINUOUS
 62
     7
 10
90.0
 20
170.0
 30
0.0
 40
7.449999999999986
  0
TEXT
  5
1EE
  8
DATA
 62
     7
 10
76.697776496093283
 20
113.7574772119861
 30
0.0
 40
5.4294789811864126
  1
ライトリング
 41
0.7
 72
     1
 11
90.0
 21
116.4722167025793
 31
0.0
 73
     2
  0
LINE
  5
1EF
  8
DATA
  6
CONTINUOUS
 62
     7
 10
65.0
 20
110.0
 30
0.0
 11
115.0
 21
110.0
 31
0.0
  0
LINE
  5
1F0
  8
DATA
  6
CONTINUOUS
 62
     7
 10
83.050000000000026
 20
143.6999999999999
 30
0.0
 11
96.950000000000003
 21
143.6999999999999
 31
0.0
  0
LINE
  5
1F1
  8
DATA
  6
CONTINUOUS
 62
     7
 10
83.50947797939898
 20
139.7999999999999
 30
0.0
 11
96.490522020601034
 21
139.7999999999999
 31
0.0
  0
ARC
  5
1F2
  8
DATA
  6
CONTINUOUS
 62
     7
 10
83.050000000000026
 20
143.1999999999999
 30
0.0
 40
0.5
 50
90.0
 51
195.922327367962
  0
LINE
  5
1F3
  8
DATA
  6
CONTINUOUS
 62
     7
 10
83.474642510239732
 20
139.88888668066821
 30
0.0
 11
82.569182760782994
 21
143.06283301245651
 31
0.0
  0
LINE
  5
1F4
  8
DATA
  6
CONTINUOUS
 62
     7
 10
82.569182760782994
 20
143.06283301245651
 30
0.0
 11
97.430817239216992
 21
143.06283301245651
 31
0.0
  0
LINE
  5
1F5
  8
DATA
  6
CONTINUOUS
 62
     7
 10
96.444540249339013
 20
139.72605366578529
 30
0.0
 11
95.900000002235174
 21
139.00000000298019
 31
0.0
  0
ARC
  5
1F6
  8
DATA
  6
CONTINUOUS
 62
     7
 10
96.950000000000003
 20
143.1999999999999
 30
0.0
 40
0.499999999999999
 50
344.07767263203789
 51
90.000000000000028
  0
LINE
  5
1F7
  8
DATA
  6
CONTINUOUS
 62
     7
 10
96.525357489760282
 20
139.88888668066821
 30
0.0
 11
97.430817239216992
 21
143.06283301245651
 31
0.0
  0
ARC
  5
1F8
  8
DATA
  6
CONTINUOUS
 62
     7
 10
83.955459756621451
 20
140.02605367025561
 30
0.0
 40
0.5000000074505681
 50
195.92232736796581
 51
216.86989764584661
  0
ARC
  5
1F9
  8
DATA
  6
CONTINUOUS
 62
     7
 10
84.500000003725305
 20
139.30000000745051
 30
0.0
 40
0.5000000074505806
 50
216.86989764584399
 51
270.0
  0
ARC
  5
1FA
  8
DATA
  6
CONTINUOUS
 62
     7
 10
96.044540243378563
 20
140.02605367025561
 30
0.0
 40
0.5000000074505637
 50
323.13010235415862
 51
344.07767263204039
  0
ARC
  5
1FB
  8
DATA
  6
CONTINUOUS
 62
     7
 10
95.499999996274724
 20
139.30000000745051
 30
0.0
 40
0.5000000074505806
 50
270.0
 51
323.13010235415612
  0
LINE
  5
1FC
  8
DATA
  6
CONTINUOUS
 62
     7
 10
-53.749999999999972
 20
124.10299999999999
 30
0.0
 11
-46.249999999999972
 21
124.10299999999999
 31
0.0
  0
LINE
  5
1FD
  8
DATA
  6
CONTINUOUS
 62
     7
 10
-53.749999999999972
 20
124.10299999999999
 30
0.0
 11
-53.749999999999972
 21
127.568
 31
0.0
  0
LINE
  5
1FE
  8
DATA
  6
CONTINUOUS
 62
     7
 10
-46.249999999999972
 20
124.10299999999999
 30
0.0
 11
-46.249999999999972
 21
127.568
 31
0.0
  0
LINE
  5
1FF
  8
DATA
  6
CONTINUOUS
 62
     7
 10
16.25
 20
124.10299999999999
 30
0.0
 11
23.75
 21
124.10299999999999
 31
0.0
  0
LINE
  5
200
  8
DATA
  6
CONTINUOUS
 62
     7
 10
16.25
 20
124.10299999999999
 30
0.0
 11
16.25
 21
127.568
 31
0.0
  0
LINE
  5
201
  8
DATA
  6
CONTINUOUS
 62
     7
 10
23.75
 20
124.10299999999999
 30
0.0
 11
23.75
 21
127.568
 31
0.0
  0
CIRCLE
  5
202
  8
DATA
  6
CONTINUOUS
 62
     7
 10
-50.0
 20
180.0
 30
0.0
 40
4.200000000000002
  0
CIRCLE
  5
203
  8
DATA
  6
CONTINUOUS
 62
     7
 10
-50.0
 20
180.0
 30
0.0
 40
4.5499999999999972
  0
CIRCLE
  5
204
  8
DATA
  6
CONTINUOUS
 62
     7
 10
-50.0
 20
180.0
 30
0.0
 40
1.5
  0
CIRCLE
  5
205
  8
DATA
  6
CONTINUOUS
 62
     7
 10
-50.0
 20
180.0
 30
0.0
 40
1.0
  0
CIRCLE
  5
206
  8
DATA
  6
CONTINUOUS
 62
     7
 10
-52.799999999999962
 20
180.0
 30
0.0
 40
0.5
  0
CIRCLE
  5
207
  8
DATA
  6
CONTINUOUS
 62
     7
 10
-47.199999999999932
 20
180.0
 30
0.0
 40
0.5
  0
CIRCLE
  5
208
  8
DATA
  6
CONTINUOUS
 62
     7
 10
-50.000000000001563
 20
-179.99999999999849
 30
0.0
 40
9.4999999999985363
  0
ARC
  5
209
  8
DATA
  6
CONTINUOUS
 62
     7
 10
-50.000000000001563
 20
-179.99999999999901
 30
0.0
 40
5.5999999999990804
 50
103.2865587324759
 51
76.713441267524075
  0
POLYLINE
  5
20A
  8
DATA
  6
CONTINUOUS
 62
     7
 66
     1
 10
0.0
 20
0.0
 30
0.0
 70
     1
  0
VERTEX
  5
344
  8
DATA
  6
CONTINUOUS
 62
     7
 10
-53.750000000001563
 20
-177.14493949403129
 30
0.0
  0
VERTEX
  5
345
  8
DATA
  6
CONTINUOUS
 62
     7
 10
-46.250000000001563
 20
-177.14493949403129
 30
0.0
  0
VERTEX
  5
346
  8
DATA
  6
CONTINUOUS
 62
     7
 10
-46.250000000001563
 20
-184.14493949403129
 30
0.0
  0
VERTEX
  5
347
  8
DATA
  6
CONTINUOUS
 62
     7
 10
-53.750000000001563
 20
-184.14493949403129
 30
0.0
  0
SEQEND
  5
348
  8
DATA
  6
CONTINUOUS
 62
     7
  0
LINE
  5
211
  8
DATA
  6
CONTINUOUS
 62
     7
 10
-51.287000000001612
 20
-174.54989623951971
 30
0.0
 11
-51.287000000001612
 21
-175.99999999999989
 31
0.0
  0
LINE
  5
212
  8
DATA
  6
CONTINUOUS
 62
     7
 10
-48.713000000001543
 20
-174.54989623951971
 30
0.0
 11
-48.713000000001543
 21
-175.90000000000001
 31
0.0
  0
LINE
  5
213
  8
DATA
  6
CONTINUOUS
 62
     7
 10
-51.287000000001612
 20
-175.90000000000001
 30
0.0
 11
-48.713000000001543
 21
-175.90000000000001
 31
0.0
  0
POLYLINE
  5
214
  8
DATA
  6
CONTINUOUS
 62
     7
 66
     1
 10
0.0
 20
0.0
 30
0.0
 70
     1
  0
VERTEX
  5
349
  8
DATA
  6
CONTINUOUS
 62
     7
 10
-52.625000000001563
 20
-178.14493949403129
 30
0.0
  0
VERTEX
  5
34A
  8
DATA
  6
CONTINUOUS
 62
     7
 10
-51.12500000000157
 20
-178.14493949403129
 30
0.0
  0
VERTEX
  5
34B
  8
DATA
  6
CONTINUOUS
 62
     7
 10
-51.12500000000157
 20
-179.64493949403129
 30
0.0
  0
VERTEX
  5
34C
  8
DATA
  6
CONTINUOUS
 62
     7
 10
-52.625000000001563
 20
-179.64493949403129
 30
0.0
  0
SEQEND
  5
34D
  8
DATA
  6
CONTINUOUS
 62
     7
  0
POLYLINE
  5
21B
  8
DATA
  6
CONTINUOUS
 62
     7
 66
     1
 10
0.0
 20
0.0
 30
0.0
 70
     1
  0
VERTEX
  5
34E
  8
DATA
  6
CONTINUOUS
 62
     7
 10
-52.625000000001563
 20
-181.64493949403129
 30
0.0
  0
VERTEX
  5
34F
  8
DATA
  6
CONTINUOUS
 62
     7
 10
-51.12500000000157
 20
-181.64493949403129
 30
0.0
  0
VERTEX
  5
350
  8
DATA
  6
CONTINUOUS
 62
     7
 10
-51.12500000000157
 20
-183.14493949403129
 30
0.0
  0
VERTEX
  5
351
  8
DATA
  6
CONTINUOUS
 62
     7
 10
-52.625000000001563
 20
-183.14493949403129
 30
0.0
  0
SEQEND
  5
352
  8
DATA
  6
CONTINUOUS
 62
     7
  0
POLYLINE
  5
222
  8
DATA
  6
CONTINUOUS
 62
     7
 66
     1
 10
0.0
 20
0.0
 30
0.0
 70
     1
  0
VERTEX
  5
353
  8
DATA
  6
CONTINUOUS
 62
     7
 10
-48.875000000001563
 20
-181.64493949403129
 30
0.0
  0
VERTEX
  5
354
  8
DATA
  6
CONTINUOUS
 62
     7
 10
-47.375000000001563
 20
-181.64493949403129
 30
0.0
  0
VERTEX
  5
355
  8
DATA
  6
CONTINUOUS
 62
     7
 10
-47.375000000001563
 20
-183.14493949403129
 30
0.0
  0
VERTEX
  5
356
  8
DATA
  6
CONTINUOUS
 62
     7
 10
-48.875000000001563
 20
-183.14493949403129
 30
0.0
  0
SEQEND
  5
357
  8
DATA
  6
CONTINUOUS
 62
     7
  0
POLYLINE
  5
229
  8
DATA
  6
CONTINUOUS
 62
     7
 66
     1
 10
0.0
 20
0.0
 30
0.0
 70
     1
  0
VERTEX
  5
358
  8
DATA
  6
CONTINUOUS
 62
     7
 10
-48.875000000001563
 20
-178.14493949403129
 30
0.0
  0
VERTEX
  5
359
  8
DATA
  6
CONTINUOUS
 62
     7
 10
-47.375000000001563
 20
-178.14493949403129
 30
0.0
  0
VERTEX
  5
35A
  8
DATA
  6
CONTINUOUS
 62
     7
 10
-47.375000000001563
 20
-179.64493949403129
 30
0.0
  0
VERTEX
  5
35B
  8
DATA
  6
CONTINUOUS
 62
     7
 10
-48.875000000001563
 20
-179.64493949403129
 30
0.0
  0
SEQEND
  5
35C
  8
DATA
  6
CONTINUOUS
 62
     7
  0
CIRCLE
  5
230
  8
DATA
  6
CONTINUOUS
 62
     7
 10
-50.000000000001563
 20
-180.0
 30
0.0
 40
8.5
  0
LINE
  5
231
  8
DATA
  6
CONTINUOUS
 62
     7
 10
-50.990000000001572
 20
-170.55172502516999
 30
0.0
 11
-50.990000000001572
 21
-171.00871536591831
 31
0.0
  0
LINE
  5
232
  8
DATA
  6
CONTINUOUS
 62
     7
 10
-48.713000000001543
 20
-170.58758102292509
 30
0.0
 11
-48.713000000001543
 21
-171.00871536591831
 31
0.0
  0
LINE
  5
233
  8
DATA
  6
CONTINUOUS
 62
     7
 10
-50.990000000001572
 20
-171.00871536591831
 30
0.0
 11
-48.713000000001543
 21
-171.00871536591831
 31
0.0
  0
LINE
  5
234
  8
DATA
  6
CONTINUOUS
 62
     7
 10
-59.448274974830028
 20
-180.9899999999985
 30
0.0
 11
-58.991284634081786
 21
-180.9899999999985
 31
0.0
  0
LINE
  5
235
  8
DATA
  6
CONTINUOUS
 62
     7
 10
-59.412418977074857
 20
-178.71299999999849
 30
0.0
 11
-58.991284634081786
 21
-178.71299999999849
 31
0.0
  0
LINE
  5
236
  8
DATA
  6
CONTINUOUS
 62
     7
 10
-58.991284634081786
 20
-180.9899999999985
 30
0.0
 11
-58.991284634081786
 21
-178.71299999999849
 31
0.0
  0
LINE
  5
237
  8
DATA
  6
CONTINUOUS
 62
     7
 10
-40.551725025173091
 20
-180.9899999999985
 30
0.0
 11
-41.008715365921319
 21
-180.9899999999985
 31
0.0
  0
LINE
  5
238
  8
DATA
  6
CONTINUOUS
 62
     7
 10
-40.587581022928248
 20
-178.71299999999849
 30
0.0
 11
-41.008715365921319
 21
-178.71299999999849
 31
0.0
  0
LINE
  5
239
  8
DATA
  6
CONTINUOUS
 62
     7
 10
-41.008715365921319
 20
-180.9899999999985
 30
0.0
 11
-41.008715365921319
 21
-178.71299999999849
 31
0.0
  0
LINE
  5
23A
  8
DATA
  6
CONTINUOUS
 62
     7
 10
-50.990000000001572
 20
-189.448274974827
 30
0.0
 11
-50.990000000001572
 21
-188.9912846340788
 31
0.0
  0
LINE
  5
23B
  8
DATA
  6
CONTINUOUS
 62
     7
 10
-48.713000000001543
 20
-189.41241897707181
 30
0.0
 11
-48.713000000001543
 21
-188.9912846340788
 31
0.0
  0
LINE
  5
23C
  8
DATA
  6
CONTINUOUS
 62
     7
 10
-50.990000000001572
 20
-188.9912846340788
 30
0.0
 11
-48.713000000001543
 21
-188.9912846340788
 31
0.0
  0
LINE
  5
23D
  8
DATA
  6
CONTINUOUS
 62
     7
 10
-46.606205979801132
 20
-175.5455458080198
 30
0.0
 11
-44.543365078477422
 21
-173.48270490669611
 31
0.0
  0
LINE
  5
23E
  8
DATA
  6
CONTINUOUS
 62
     7
 10
-45.545545808021423
 20
-176.60620597979971
 30
0.0
 11
-43.482704906697599
 21
-174.54336507847589
 31
0.0
  0
LINE
  5
23F
  8
DATA
  6
CONTINUOUS
 62
     7
 10
-53.393794020201987
 20
-184.45445419197719
 30
0.0
 11
-55.456634921525698
 21
-186.5172950933009
 31
0.0
  0
LINE
  5
240
  8
DATA
  6
CONTINUOUS
 62
     7
 10
-54.454454191981696
 20
-183.3937940201973
 30
0.0
 11
-56.517295093305542
 21
-185.4566349215211
 31
0.0
  0
ENDSEC
  0
EOF
